Gaia Bleeds Make Way For Man Tab - Set Your Goals




----------------------------------------------------------------------------
                         Gaia Bleeds(Make Way For Man)
----------------------------------------------------------------------------

 . palm mute
 / slide towards the head
 b bend
 r return bend
 x left hand muted note
 ~ let note ring

 Intro (0:00-0:14)
|-----------------------------|
|-----------------------------|
|-----------------------------|
|-7xx7xxxx7xx7xxxx1--77777----|
|-9xx9xxxx9xx9xxxx1--77777----|
|-----------------1--77777----|

|-----------------------------|
|-----------------------------|
|-----------------------------|
|-1xx1xxxx1xx1xxxx1--77777777-| 
|-1xx1xxxx1xx1xxxx1--77777777-|  
|-1xx1xxxx1xx1xxxx1--77777777-|   
                                   
|-----------------------------|    
|-----------------------------|   
|-----------------------------|  
|-1xx1xxxx1xx1xxxx1--77779999-| 
|-1xx1xxxx1xx1xxxx1--77779999-|
|-1xx1xxxx1xx1xxxx1--77779999-|           Lead Guitar

|-----------------------------|   |-----------------------------|
|-----------------------------|   |-----------------------------|
|-----------------------------|   |-8--8----8--8-99999999999999-|
|-1xx1xxxx1xx1xxxx1--77777777-|   |-----------------------------|
|-1xx1xxxx1xx1xxxx1--77777777-|   |-----------------------------|
|-1xx1xxxx1xx1xxxx1--77777777-|   |-----------------------------|
                                   
|-----------------------------|   |-----------------------------|   
|-----------------------------|   |-----------------------------|
|-----------------------------|   |-8--8----8--8----------------|
|-1xx1xxxx1xx1----------------|   |-----------------------------|
|-1xx1xxxx1xx1----------------|   |-----------------------------|
|-1xx1xxxx1xx1----------------|   |-----------------------------|

 Main Riff (0:16-0:29)
|-----------------------------|
|-----------------------------|
|-----------------------------| X4
|-1~~111~~111~~111177777777---| 
|-1~~111~~111~~111177777777---|
|-1~~111~~111~~111177777777---|
     ..   ..   ....

 Verse1 (0:30-0:42)
|-----------------------------|
|-----------------------------|
|-8xx8xxxx8xx8-8--------------|
|-8xx8xxxx8xx8-8-1---77777777-|
|-6xx6xxxx6xx6-6-1---77777777-|
|----------------1---77777777-|
                 .

 Chorus1 (0:43-0:55)
|-----------------------------|
|-----------------------------|
|-----------------------------| X4
|-1~~111~~111~~111177777777---| 
|-1~~111~~111~~111177777777---|
|-1~~111~~111~~111177777777---|
     ..   ..   ....                           Lead Guitar X2
 
 Verse2 (0:56-1:09)           
|-----------------------------|    |---11----11----11----11------13131313-|
|-----------------------------|    |-12--12----12----12----12--12---------|
|-8xx8xxxx8xx8-8--------------| X4 |-------13----13----13----13-----------|
|-8xx8xxxx8xx8-8-1---77777777-|    |--------------------------------------|
|-6xx6xxxx6xx6-6-1---77777777-|    |--------------------------------------|
|----------------1---77777777-|    |--------------------------------------|
                 .
|-----------------------------|
|-----------------------------|
|-----------------------------|
|-1xx1xxxx1xx1xxxx1--77777777-|
|-1xx1xxxx1xx1xxxx1--77777777-|
|-1xx1xxxx1xx1xxxx1--77777777-|
  
|-----------------------------|
|-----------------------------|
|-----------------8-----------| 
|-1111111-1--1----8-1-1-1-1-1-|
|-1111111-1--1----6-1-1-1-1-1-|
|-1111111-1--1------1-1-1-1-1-|
   .. ..  .  .      . . . . .                        

 Chorus2 (1:10-1:26)
|-----------------------------|    
|-----------------------------|    
|-----------------------------| X2 
|-1~~111~~111~~111177777777---| 
|-1~~111~~111~~111177777777---|
|-1~~111~~111~~111177777777---|
     ..   ..   ....      

|-----------------------------------------------------------|    
|-----------------------------------------------------------|    
|-----------------------------------------------------------|  
|-1~~111~~111~~11117777777712//////1~111~~111~~111177777777-|
|-1~~111~~111~~11117777777712//////1~111~~111~~111177777777-|
|-1~~111~~111~~11117777777712//////1~111~~111~~111177777777-|
     ..   ..   ....         ........ ...  ...  ....
                         (twelve)

|------------------------------------|    
|------------------------------------|    
|------------------------------------| 
|-1~~111~~111~~1111777777776~~~~7778~| 
|-1~~111~~111~~1111777777776~~~~7778~|
|-1~~111~~111~~1111777777776~~~~7778~|
     ..   ..   ....    

 Interlude (1:27-1:46)
|-----------------------------------------------|
|-----------------------------------------------|
|-----------------------------------------------|
|-----------------------------------------------|
|------5~~5~~-----5~~5/6~6~-----5~~5~~-----5~~6-|
|-1~~1~------1~~1~---------1~~1~------1~~1~-----|

|-----------------------------------------------|
|-----------------------------------------------|
|------7~~7~~-----7~~7/8~8~-----7~~7~~----------| 
|-1--1-7~~7~~1--1-7~~7/8~8~1--1-7~~7~~4--4/6--6-|
|-1--1-5~~5~~1--1-5~~5/6~6~1--1-5~~5~~4--4/6--6-|
|-1--1-------1--1----------1--1-------4--4/6--6-|

|-----------------------------------------------|
|-----------------------------------------------|
|------7~~7~~-----7~~7/8~8~-----7~~7~~----------| They're 4's not 14's and
|-1--1-7~~7~~-----7~~7/8~8~1--1-7~~7~~----/6--6-| i suggest hammer ons and 
|-1--1-5~~5~~-----5~~5/6~6~1--1-5~~5~~----/6--6-| pull offs for those notes
|-1--1-------14141---------1--1-------1414/6--6-|

Rythym repeats this riff while lead plays this...

 Solo (1:47-1:59)
|-----------------10|11----------------------10|11|12br~-|
|----------------------10b~r~----------------------------|
|-8888888888888888----------8888888888888888-------------|
|--------------------------------------------------------|
|--------------------------------------------------------|
|--------------------------------------------------------|

|-1111111111111111|10|11111111111111|10|11111111|1212121212121212|
|----------------------------------------------------------------|
|----------------------------------------------------------------| X2
|----------------------------------------------------------------|
|----------------------------------------------------------------|
|----------------------------------------------------------------|

It would probably be easier to explain. Again they are 11's 10's and 12's.
Just tremelo pick the notes.  The lines in between show which 1's belog to
which number. Hold last note for another beat the second time around.

 Bridge (2:00-2:12)
|-----------------------------------------------------------------|
|-----------------------------------------------------------------|
|-----------------------------------------------------------------|
|-1-1-1-1-111-1-1-1-1-1-1-111-1-1-1-1-1-1-111-1-1-111-111-111-111-|
|-1-1-1-1-111-1-1-1-1-1-1-111-1-1-1-1-1-1-111-1-1-111-111-111-111-|
|-1-1-1-1-111-1-1-1-1-1-1-111-1-1-1-1-1-1-111-1-1-111-111-111-111-|
  . . . . ... . . . . . . ... . .   . . . ... . . ... ... ... ...

Just tremelo pick this same note with the lead playing this...

|-----------------------------------------------------------------|
|-----------------------------------------------------------------|
|-8~~~~~~~~~~~~~~~~~~~~~~~~~~~~~~~8~~~~~~~~~~~~~~~~~~~////////////|
|-----------------------------------------------------------------|
|-----------------------------------------------------------------|
|-----------------------------------------------------------------|

 Breakdown (2:13-2:29)
|-----------------------------|
|-----------------------------|
|-1--1----1-------1--22222222-|
|-1--1----1-------1--22222222-| 
|-1--1----1-------1--00000000-|  
|-----------------------------|

|--------------------------------------------------|
|--------------------------------------------------|
|--------------------------------------------------|
|-1-111---1--1-------1-111---1--1------------------|
|-1-111---1--1-------1-111---1--1------------------|
|-1-111---1--1-------1-111---1--1--1-1-1111111111//| again... 1's
                                   . . ..........
This time lead will play the tremelo notes underneath this main riff

 Chorus (2:30-2:46
|-----------------------------|
|-----------------------------|
|-----------------------------| X4
|-1xx1xxxx1xx1xxxx1--77777777-| 
|-1xx1xxxx1xx1xxxx1--77777777-|  
|-1xx1xxxx1xx1xxxx1--77777777-|

 Outro (2:47-2:50)
|-----------------------------|
|-----------------------------|
|--------------------22222222-|
|-1-1111-1111-1111-1122222222-|
|-1-1111-1111-1111-1100000000-|
|-1-1111-1111-1111-11---------|

|-----------------------------|
|-----------------------------|
|-----------------------------|
|-7xx7xxxx7xx7xxxx1--77777~~//|
|-9xx9xxxx9xx9xxxx1--77777~~//|
|-----------------1--77777~~//|
ĂŽnscrie-te la newsletter


Join the ranks ! LIKE us on Facebook