Mutiny Intro (ver2) Tab - Set Your Goals




*=palm mute
//=Slide



e|------------------------|
B|------------------------|
G|------------------------|
D|--2---------------------|
A|--0----0-2-0-4-00-------|
E|------------------------|(once)

e|-------------------------------------------------------|
B|-------------------------------------------------------|
G|-------------------------------------------------------|
D|--2------------------4//6----2------------------4//6---|
A|--0----0-2-0-4-00----2//4----0----0-2-0-4-------2//4---|
E|------------------------------------------00-----------|(repeat)

just get the rhythm and you good to go. trust me its it just keep trying too sound it out

ĂŽnscrie-te la newsletter


Join the ranks ! LIKE us on Facebook