Reset (ver2) Tab - Set Your Goals






-------------------------------------------------------------------------------
     RESET - Set Your Goals
-------------------------------------------------------------------------------
Tabbed by: Jon Kunz
Email: theredchordx@yahoo.com


LISTEN TO THE SONG FOR THE PATTERNS BECAUSE
I DID NOT TAB THEM OUT DUE TO THE REPEATS


Tuning: Standard down a half step

Intro 
Guitar I
e|--0---0--0-0---0---0--0---0--0-0---0---0-----|
B|-5-5-4-4-------------5-5-4-4--7-7-9-9-7------|
G|--------4-6-6-4-4-4---------4----------------|
D|---------------------------------------------|
A|---------------------------------------------|
E|---------------------------------------------|

Cont...
e|--0---0--0-0---0---0--0----0---0-0---0---0---|
B|-5-5-4-4------------10-10-9-9-9-2-2-4-4-4----|
G|--------4-6-6-4-4-4--------------------------|
D|---------------------------------------------|
A|---------------------------------------------|
E|---------------------------------------------|

Guitar II
*listen to the song, it's the first part
then the second part before it kicks up is just the 
e chord palm muted followed by the other 2 chords         
e|----------|-----------------------------------|
B|----------|-----------------------------------|
G|----------|-----------------------------------|
D|----------|-----------------------------------|
A|-2-11-9---|-----------------------------------|
E|-0-9--7---|-----------------------------------|

LET'S GO!! (0:40)
Guitar I
e|----------------------------------|
B|----------------------------------|
G|----------------------------------|
D|----------------------------------|
A|-2-9-11-7-------------------------|
E|-0-7-9--5-------------------------|

Guitar II
e|----------------------------------|
B|----------------------------------|
G|-9-11-13-14-13-11-13-9------------|
D|-x-x--x--x--x--x--x--x------------|
A|-7-9--11-12-11-9--11-7------------|
E|----------------------------------|

Guitar III (0:53)

e|-4444457-2222245-00754007540-4444457-2222245---------------444542-------|
B|---------------------------------------------50402405040200-------------|
G|------------------------------------------------------------------------|
D|------------------------------------------------------------------------|
A|------------------------------------------------------------------------|
E|------------------------------------------------------------------------|




| /  slide up
|   slide down
| h  hammer-on
| p  pull-off
| ~  vibrato
| +  harmonic
| x  Mute note
===============================================================================






Like us on Facebook