This Very Moment Tab - Set Your Goals






THIS IS JUST THE INTERLUDE/ENDING TO THE SONG NOT THE FIRST 1:15.

This is my first ever tab. Im not a trained guitarist I play drums and guitar on the
so there are a lot of problems with this tab. The core of it is pretty much there but I
really appreciate someone who knows what theyre doing would correct the solo during the 
as they sing this very moment cause I got the notes correct I think but in the
order. Well thats about it.


Part @ 1:16-1:28 (Guitar 1)

    e|--------------------------------------------------------------------------|
    B|--------------------------------------------------------------------------|
    G|--------------------------------------------------------------------------|
    D|-2-(ring)-----------2-(ring)------------2-(ring)-------222222-22222222----|
    A|-2-(ring)-----------2-(ring)------------2-(ring)-------222222-22222222----|
    E|-0-(ring)-----------0-(ring)------------0-(ring)-------000000-00000000----|
P.m
      . . . . . .
         ..This Ends       ..dont want it       ..are you ready


Part @ 1:28-1:30 (Guitar 1)
    e|---------------------------|
    B|---------------------------|
    G|---------------------------|
    D|-11x11x--9/11x---7x-77-----|
    A|-11x11x--9/11x---7x-77-----|
    E|--9x-9x--7/-9-x-5x-55-----|
..Well have nothing left to show...

Part @ 1:31 (Guitar 2)
    e|-----------|
    B|-12/13-12--|
    G|-----------|
    D|-----------|
    A|-----------|
    E|-----------|

Part @ 1:32-1:46 (Guitar 1)
    e|------------------------------------------------------|
    B|------------------------------------------------------|
    G|------------------------------------------------------|
    D|-2-22222222222222--11-x-11-x-9/11-x--7-x-77-777-------| X2
    A|-2-22222222222222--11-x-11-x-9/11-x--7-x-77-777-------|
    E|-0-00000000000000--9--x-9--x--7/-9-x--5-x-55-454------|
P.m    . . . . . . . . . . . . . .

Part @ 1:47-2:01
    e|--------------------------|
    B|--------------------------|
    G|--------------------------|
    D|-2-------11------9--------|
    A|-2-x16---11-x8---9-x8-----|
    E|-0-------9-------7--------|
      ..Time is running on..


Part @ 2:01-2:15 (Guitar 1)
    e|------------------------------------------------|
    B|------------------------------------------------|
    G|------------------------------------------------|
    D|-2-222-2-22-222222--11-111111-1111-999999-------|
    A|-2-222-2-22-222222--11-111111-1111-999999-------|
    E|-0-000-0-00-000000--9--99-9--9-9--777777-------|
P.M     . . .            . . . . . .   .     .   .
This very moment           nothing else is this important

  (Guitar 2)
    e|---------------------------------------------|
    B|---9-11----9-11----8----11-9-8---11-9-8------|
    G|-8-------8-------8---8---------8-------------|
    D|---------------------------------------------|
    A|---------------------------------------------|
    E|---------------------------------------------|

(Guitar 1)
    e|----------------------------------------------------------|
    B|----------------------------------------------------------|
    G|----------------------------------------------------------|
    D|-2-222-2-22-222222--11x11x--9/11x--7x77-7-7-7-2-----------|
    A|-2-222-2-22-222222--11x11x--9/11x--7x77-7-7-7-2-(ring)----|
    E|-0-000-0-00-000000--9-x-9x--7/-9x--5x55-4/54-0-----------|
P.M     . . .            . . . . . .
This very moment             nothing else is this important

(Guitar 2)
    e|---------------------------------------------|
    B|---9-11----9-11----8----11-9-8---11-9-8------|
    G|-8-------8-------8---8---------8--------8----|
    D|---------------------------------------------|
    A|---------------------------------------------|
    E|---------------------------------------------|

(Guitar 2) @ 2:16
    e|------------------------|
    B|-6-9-8-6-8--------------|
    G|-----------8-(ring)-----|
    D|------------------------|
    A|------------------------|
    E|------------------------|






Like us on Facebook