To Be Continued Tab - Set Your Goals




|-------------------------------------------------------------|
|-------------------------------------------------------------|
|-4-4-4-4-4-4-4-6-6-6-6-6-6-6---------------------------------|
|-4-4-4-4-4-4-4-6-6-6-6-6-6-6-6-6-6-6-6-6-6-7-7-7-7-7-7-6-6-4-|
|-2-2-2-2-2-2-2-4-4-4-4-4-4-4-6-6-6-6-6-6-6-7-7-7-7-7-7-6-6-4-|
|-----------------------------4-4-4-4-4-4-4-4-4-4-4-4-4-4-4-4-|
"this time..."

|-----------------------------------------------------------|
|-----------------------------------------------------------|
|-2-2-2-2-2-2-2-2-2-2-2-2-2-2---2-2-2-2-2-2-2---------------|
|-2-2-2-2-2-2-2-2-2-2-2-2-2-2-4-2-2-2-2-2-2-2-4-4-4-4-6-4---|
|-2-2-2-2-2-2-2-2-2-2-2-2-2-2-4-2-2-2-2-2-2-2-4-4-4-4-6-4---|
|-----------------------------2---------------2-0-2-0-4-2---|
"try and..."

|-----------------------------------------------------------------|
|-----------------------------------------------------------------|
|-2-2-2-2-2-2-2-2-2-2-2-2-4-4-4-4---------------------------------|
|-2-2-2-2-2-2-2-2-2-2-2-2-4-4-4-4-4-4-4-4-4-4-4-4-4-4-4-4-6-4-2-4-|
|-2-2-2-2-2-2-2-2-2-2-2-2-2-2-2-2-4-4-4-4-4-4-4-4-4-4-4-4-6-4-2-4-|
|---------------------------------2-2-2-2-2-2-2-2-2-0-2-0-4-2-0-2-|

|-----------------------------------------------------------------------------|
|-----------------------------------------------------------------------------|
|-2-2-2-2-2-2-2-2-2-2-2-2-4-4-4-4---------------------------------------------|
|-2-2-2-2-2-2-2-2-2-2-2-2-4-4-4-4-4-4-4-4-4-4-4-4-4-4-4-4-6-4-2-4-6-----------|
|-2-2-2-2-2-2-2-2-2-2-2-2-2-2-2-2-4-4-4-4-4-4-4-4-4-4-4-4-6-4-2-4-6-(ring...)-|
|---------------------------------2-2-2-2-2-2-2-2-2-0-2-0-4-2-0-2-4-----------|

|-----------------------------------------------------------------|
|-----------------------------------------------------------------|
|---------------------------------2-2-2-2-2-2-2-2-2-2-2-2---------|
|-6-6-6-6-6-6-6-6-6-6-6-6-4-4-4-4-2-2-2-2-2-2-2-2-2-2-2-2-4-4-4-4-|
|-6-6-6-6-6-6-6-6-6-6-6-6-4-4-4-4-2-2-2-2-2-2-2-2-2-2-2-2-4-4-4-4-|
|-4-4-4-4-4-4-4-4-4-4-4-4-2-0-2-0-------------------------2-0-2-0-|
"lets take this outside..."

|---------------------------------------------------------------------------------|
|---------------------------------------------------------------------------------|
|---------------------------------2-2-2-2-2-2-2-2-2-2-2-2-4-4-4-4-4-4-6-6-6-6-6-6-|
|-6-6-6-6-6-6-6-6-6-6-6-6-4-4-4-4-2-2-2-2-2-2-2-2-2-2-2-2-4-4-4-4-4-4-6-6-6-6-6-6-|
|-6-6-6-6-6-6-6-6-6-6-6-6-4-4-4-4-2-2-2-2-2-2-2-2-2-2-2-2-2-2-2-2-2-2-4-4-4-4-4-4-|
|-4-4-4-4-4-4-4-4-4-4-4-4-2-0-2-0-------------------------------------------------|
"dare to resist it"

|-----------------------------------------------------------------|
|-----------------------------------------------------------------|
|---------------------------------2-2-2-2-2-2-2-2-2-2-2-2---------|
|-6-6-6-6-6-6-4-4-6-6-6-6-4-4-4-4-2-2-2-2-2-2-2-2-2-2-2-2-4-4-4-4-|
|-6-6-6-6-6-6-4-4-6-6-6-6-4-4-4-4-2-2-2-2-2-2-2-2-2-2-2-2-4-4-4-4-|
|-4-4-4-4-4-4-2-2-4-4-4-4-2-0-2-0-------------------------2-0-2-0-|
"uncomplicated we both know..."

|-------------------------------------------------------------------------------------------------|
|-------------------------------------------------------------------------------------------------|
|---------------------------------2-2-2-2-2-2-2-2-2-2-2-2-4-4-4-4-4-4-----------------2-2-2-2-2-2-|
|-6-6-6-6-6-6-6-6-6-6-6-6-4-4-4-4-2-2-2-2-2-2-2-2-2-2-2-2-4-4-4-4-4-4-4-4-4-4-4-4-6-6-2-2-2-2-2-2-|
|-6-6-6-6-6-6-6-6-6-6-6-6-4-4-4-4-2-2-2-2-2-2-2-2-2-2-2-2-2-2-2-2-2-2-4-4-4-4-4-4-6-6-2-2-2-2-2-2-|
|-4-4-4-4-4-4-4-4-4-4-4-4-2-0-2-0-------------------------------------2-2-2-2-2-2-4-4-------------|
"i'll keep this..."

|-----------------------------------------------------------------|
|-----------------------------------------------------------------|
|-4-4-4-4-6-6-6-6-----2-2-2-2-2-2-4-4-4-4-------------2-2-2-2-2-2-|
|-4-4-4-4-6-6-6-6-6-6-2-2-2-2-2-2-4-4-4-4-4-4-4-4-6-6-2-2-2-2-2-2-|
|-2-2-2-2-4-4-4-4-6-6-2-2-2-2-2-2-2-2-2-2-4-4-4-4-6-6-2-2-2-2-2-2-|
|-----------------4-4---------------------2-2-2-2-4-4-------------|
"i am gonna go for a run..."

|-----------------------------------|
|-----------------------------------|
|-4-4-4-4-6-6-6-6---2-----2---2-2-2-|
|-4-4-4-4-6-6-6-6-4-2-6-4-2-4-2-2-2-|
|-2-2-2-2-4-4-4-4-4-2-6-4-2-4-2-2-2-|
|-----------------2---4-2---2-------|
"if it wasn't obvious enough..."

|-------------------------------------------------------------|
|-------------------------------------------------------------|
|-4-4-4-4-4-4-4-6-6-6-6-6-6-6---------------------------------|
|-4-4-4-4-4-4-4-6-6-6-6-6-6-6-6-6-6-6-6-6-6-7-7-7-7-7-7-6-6-4-|
|-2-2-2-2-2-2-2-4-4-4-4-4-4-4-6-6-6-6-6-6-6-7-7-7-7-7-7-6-6-4-|
|-----------------------------4-4-4-4-4-4-4-4-4-4-4-4-4-4-4-4-|
"this time..."

|------------------------------------------------------------------|
|------------------------------------------------------------------|
|-2-2-2-2-2----2-2-2-2-2---2-2-2-2-2---2-2-------------------------|
|-2-2-2-2-2----2-2-2-2-2-4-2-2-2-2-2---2-2-4-4-4-4-6-4-6-----------|
|-2-2-2-2-2----2-2-2-2-2-4-2-2-2-2-2---2-2-4-4-4-4-6-4-6-(ring...)-|
|------------------------2-----------------2-0-2-0-4-2-4-----------|
"try and..."

|----------------------------------------------|
|----------------------------------------------|
|-----------------------2------2-2-2-2---------|
|-6-----6-6-6-6-4-4-4-4-2------2-2-2-2-4-4-4-4-|
|-6-----6-6-6-6-4-4-4-4-2------2-2-2-2-4-4-4-4-|
|-4-----4-4-4-4-2-0-2-0----------------2-0-2-0-|
"lets take this outside..."

|----------------------------------------------|
|----------------------------------------------|
|-----------------------2------2-2-2-2---------|
|-6-----6-6-6-6-4-4-4-4-2------2-2-2-2-4-4-4-4-|
|-6-----6-6-6-6-4-4-4-4-2------2-2-2-2-4-4-4-4-|
|-4-----4-4-4-4-2-0-2-0----------------2-0-2-0-|
"dare to resist it"

|-----------------------------------------------------------------|
|-----------------------------------------------------------------|
|---------------------------------2-2-2-2-2---2-2-2-2-2-2---------|
|-6-6-6-6-6-6-4-4-6-6-6-6-4-4-4-4-2-2-2-2-2-4-2-2-2-2-2-2-4-4-4-4-|
|-6-6-6-6-6-6-4-4-6-6-6-6-4-4-4-4-2-2-2-2-2-4-2-2-2-2-2-2-4-4-4-4-|
|-4-4-4-4-4-4-2-2-4-4-4-4-2-0-2-0-----------2-------------2-0-2-0-|
"if we can keep on the communication..."

|-------------------------------------------------------------------------------------------------|
|-------------------------------------------------------------------------------------------------|
|---------------------------------2-2-2-2-2-2-2-2-2-2-2-2-4-4-4-4-4-4-----------------2-2-2-2-2-2-|
|-6-6-6-6-6-6-6-6-6-6-6-6-4-4-4-4-2-2-2-2-2-2-2-2-2-2-2-2-4-4-4-4-4-4-4-4-4-4-4-4-6-6-2-2-2-2-2-2-|
|-6-6-6-6-6-6-6-6-6-6-6-6-4-4-4-4-2-2-2-2-2-2-2-2-2-2-2-2-2-2-2-2-2-2-4-4-4-4-4-4-6-6-2-2-2-2-2-2-|
|-4-4-4-4-4-4-4-4-4-4-4-4-2-0-2-0-------------------------------------2-2-2-2-2-2-4-4-------------|
"this song will end..."

|-----------------------------------------------------------------|
|-----------------------------------------------------------------|
|-4-4-4-4-6-6-6-6-----2-2-2-2-2-2-4-4-4-4-------------2-2-2-2-2-2-|
|-4-4-4-4-6-6-6-6-6-6-2-2-2-2-2-2-4-4-4-4-4-4-4-4-6-6-2-2-2-2-2-2-|
|-2-2-2-2-4-4-4-4-6-6-2-2-2-2-2-2-2-2-2-2-4-4-4-4-6-6-2-2-2-2-2-2-|
|-----------------4-4---------------------2-2-2-2-4-4-------------|
"i am gonna go for a run..."

|-----------------------------------|
|-----------------------------------|
|-4-4-4-4-6-6-6-6---2-----2---2-2-2-|
|-4-4-4-4-6-6-6-6-4-2-6-4-2-4-2-2-2-|
|-2-2-2-2-4-4-4-4-4-2-6-4-2-4-2-2-2-|
|-----------------2---4-2---2-------|
"if it wasn't obvious enough..."

|-------------------------------------------------------------|
|-------------------------------------------------------------|
|-4-4-4-4-4-4-4-6-6-6-6-6-6-6---------------------------------|
|-4-4-4-4-4-4-4-6-6-6-6-6-6-6-6-6-6-6-6-6-6-7-7-7-7-7-7-6-6-4-|
|-2-2-2-2-2-2-2-4-4-4-4-4-4-4-6-6-6-6-6-6-6-7-7-7-7-7-7-6-6-4-|
|-----------------------------4-4-4-4-4-4-4-4-4-4-4-4-4-4-4-4-|
"this time..."

|------------------------------------------------------------------|
|------------------------------------------------------------------|
|-2-2-2-2-2----2-2-2-2-2---2-2-2-2-2---2-2-------------------------|
|-2-2-2-2-2----2-2-2-2-2-4-2-2-2-2-2---2-2-4-4-4-4-6-4-6-----------|
|-2-2-2-2-2----2-2-2-2-2-4-2-2-2-2-2---2-2-4-4-4-4-6-4-6-(ring...)-|
|------------------------2-----------------2-0-2-0-4-2-4-----------|
"try and..."

|----------------------------------------------------------------------------------------------|
|----------------------------------------------------------------------------------------------|
|-------------------------------2-2--2-2--2-2---2-2--2-------------2-2--2-2--2-2---4-4-4-4-----|
|-6-6--6-6--6-6--6-6--6-6--6-6--2-2--2-2--2-2-4-2-2--2-4-4-6-4-4-4-2-2--2-2--2-2-4-4-4-4-4-4-4-|
|-6-6--6-6--6-6--6-6--6-6--6-6--2-2--2-2--2-2-4-2-2--2-4-4-6-4-4-4-2-2--2-2--2-2-4-2-2-----4-4-|
|-4-0--4-0--4-0--4-0--4-0--4-0----------------2--------2-0-4-2-0-2---------------2---------2-2-|
"all or nothing.."

|----------------------------------------------------|
|----------------------------------------------------|
|-2-2--2-2--2-2---2-2--2-------------2-2--2-2--2-2---|
|-2-2--2-2--2-2-4-2-2--2-4-4-6-4-4-4-2-2--2-2--2-2-4-|
|-2-2--2-2--2-2-4-2-2--2-4-4-6-4-4-4-2-2--2-2--2-2-4-|
|-----------------2------2-0-4-2-0-2---------------2-|
"just get me..." (this is played in the background, can't figure out the 'solo' part...)

|-----------------------------|
|-----------------------------|
|-4-4-4-4-4-4-4-6-6-6-6-6-6-6-|
|-4-4-4-4-4-4-4-6-6-6-6-6-6-6-|
|-2-2-2-2-2-2-2-4-4-4-4-4-4-4-|
|-----------------------------|
                              
|-------------------------------------------------------------|
|-------------------------------------------------------------|
|-4-4-4-4-4-4-4-6-6-6-6-6-6-6---------------------------------|
|-4-4-4-4-4-4-4-6-6-6-6-6-6-6-6-6-6-6-6-6-6-7-7-7-7-7-7-6-6-4-|
|-2-2-2-2-2-2-2-4-4-4-4-4-4-4-6-6-6-6-6-6-6-7-7-7-7-7-7-6-6-4-|
|-----------------------------4-4-4-4-4-4-4-4-4-4-4-4-4-4-4-4-|
"this time..."

|---------------------------------------------------------|
|---------------------------------------------------------|
|-2-2-2-2-2-2-2-2-2-2-2-2-2-2---2-2-2-2-2-2-2-------------|
|-2-2-2-2-2-2-2-2-2-2-2-2-2-2-4-2-2-2-2-2-2-2-4-4-4-4-6-4-|
|-2-2-2-2-2-2-2-2-2-2-2-2-2-2-4-2-2-2-2-2-2-2-4-4-4-4-6-4-|
|-----------------------------2---------------2-0-2-0-4-2-|
"try and..."

|-------------------------------------------------------------|
|-------------------------------------------------------------|
|-4-4-4-4-4-4-4-6-6-6-6-6-6-6---------------------------------|
|-4-4-4-4-4-4-4-6-6-6-6-6-6-6-6-6-6-6-6-6-6-7-7-7-7-7-7-6-6-4-|
|-2-2-2-2-2-2-2-4-4-4-4-4-4-4-6-6-6-6-6-6-6-7-7-7-7-7-7-6-6-4-|
|-----------------------------4-4-4-4-4-4-4-4-4-4-4-4-4-4-4-4-|
"this time..."

|---------------------------------------------------------|
|---------------------------------------------------------|
|-2-2-2-2-2-2-2-2-2-2-2-2-2-2---2-2-2-2-2-2-2-------------|
|-2-2-2-2-2-2-2-2-2-2-2-2-2-2-4-2-2-2-2-2-2-2-4-4-4-4-6-4-|
|-2-2-2-2-2-2-2-2-2-2-2-2-2-2-4-2-2-2-2-2-2-2-4-4-4-4-6-4-|
|-----------------------------2---------------2-0-2-0-4-2-|
"try and..."

|-------------------------------------------------------------------|
|-------------------------------------------------------------------|
|-2-2-2-2-2-2-2-2-2-2-2-2-4-4-4-4-----------------------------------|
|-2-2-2-2-2-2-2-2-2-2-2-2-4-4-4-4-4-4-4-4-4-4-4-4-4-4-4-4-6-4-2-4-6-|
|-2-2-2-2-2-2-2-2-2-2-2-2-2-2-2-2-4-4-4-4-4-4-4-4-4-4-4-4-6-4-2-4-6-|
|---------------------------------2-2-2-2-2-2-2-2-2-0-2-0-4-2-0-2-4-| (x2)
"try if we might..."
ĂŽnscrie-te la newsletter


Join the ranks ! LIKE us on Facebook