No Fun (ver2) Tab - Sex Pistols






Intro
e----------------------------|
B-------------3--3--3--3-----|
G-------------2--2--2--2-----|
D-2--2--2--2--0--0--0--0-----|
A-0--0--0--0-----------------|
E----------------------------|

Verse
e-------------------------------------------------|
B-------------------------------------------------|
G-------------------------------------------------|
D-------------------------------------------------|
A-7-7-7-7-7-7-7-7-2-2-2-2-2-2-2-2-7-7-7-7-7-7-7-7-|
E-5-5-5-5-5-5-5-5-0-0-0-0-0-0-0-0-5-5-5-5-5-5-5-5-|

Chorus
e-----------------------------------------------------------------|
B-----------------------------------------------------------------|
G-----------------------------------------------------------------|
D-7-7-7-7-7-7-7-7-------------------------------------------------|
A-5-5-5-5-5-5-5-5-7-7-7-7-7-7-7-7-2-2-2-2-2-2-2-2-5-5-5-5-5-5-5-5-|
E-----------------5-5-5-5-5-5-5-5-0-0-0-0-0-0-0-0-5-5-5-5-5-5-5-5-|






Like us on Facebook