Submission Tab - Sex Pistols






---------------------------------------------------------------
Submission - Sex Pistols.
--------------------------------------------------------------

Tuning: -Standard.

Main riff:
e|-----------------------------------------------|
B|-----------------------------------------------|
G|--x-x-5-5-x-x-3-3-x-x-8-8-x-x-5-5--------------|
D|--x-x-5-5-x-x-3-3-x-x-8-8-x-x-5-5--------------|
A|--x-x-3-3-x-x-1-1-x-x-6-6-x-x-3-3--------------|
E|-----------------------------------------------|

Chorus: 
e|-----------------------------------------------|
B|-----------------------------------------------|
G|--8-----10-------------------------------------|
D|--8-----10-------------------------------------|
A|--6-----8--------------------------------------|
E|-----------------------------------------------|
  -Let the notes ring.






Like us on Facebook