This Is Not A Love Song Intro Tab - Sex Pistols






intro

e|---------------------------------------------------------------|
B|-----6-----8------10-------13----12----10----------------------|
G|---------------------------------------------------------------|
D|-5/7---7/9---9/10----10/14----12----10----10-------------------|
A|---------------------------------------------------------------|
E|---------------------------------------------------------------|

e|---------------------------------------------------------------|
B|-----6-----8------10-------------------------------------------|
G|---------------------------------------------------------------|
D|-5/7---7/9---9/10----------------------------------------------|
A|---------------------------------------------------------------|
E|---------------------------------------------------------------|

x4

e|---------------------------------------------------------------|
B|---------------------------------------------------------------|
G|-10-10-10-9-9--------------------------------------------------|
D|-10-10-10-9-9-7-7-7-7-7-7-7-7----------------------------------|
A|-8--8--8--7-7-7-7-7-7-7-7-7-7----------------------------------|
E|--------------5-5-5-5-5-5-5-5----------------------------------|






Like us on Facebook