Casting Shade Tab - Shadows Fall




Band - Shadows Fall
Song - Casting Shade

Key:
p - pull off
h - hammer on
b - bend
 - slide
/ - slide

Tuning: D G C F A D

Intro/verse:
(Guitar 1)                           
|---------------------------------------------------------|---------|
|---------------------------------------------------------|---------|
|------0----------------0---------------------------------|---------|
|----2--------2-------2-------2-------0-4-----0-2-----0-4-|---2---0-|
|--2--------2---2---2-------2---2---2-------2-------2-----|---------|
|0--------0-------0-------0-------2-------2-------2-------|-2---2---|

 (only 2nd time) 
|---------------|
|---------------|
|---------------|
|-----0-4---2p0-|
|---2-----------|
|-2-------2-----|
(Guitar 2)
|0--------------------------------2---------------------------------|
|0--------------------------------3---------------------------------|
|0--------------------------------2---------------------------------|
|2--------------------------------0---------------------------------|
|2------------------------------------------------------------------|
|0------------------------------------------------------------------|

Prechorus:
(Guitar 1)
|-------------------------------------------------------------------|
|--------------------------8----------------------------------------|
|9---7--9-------9---7--9---9--9---7-------------5h7---7--9---7--5---|
|10--9--10------10--9--10-----10--9-------------7h7---9--10--9--7---|
|-------------------------------------------------------------------|
|-------------------------------------------------------------------|

(Guitar 2)
|-------------------------------------------------------------------|
|-------------------------------------------------------------------|
|-------------------------------------------------------------------|
|-------------------------------------------------------------------|
|-------------------------------------------------/12---10--9-------|
|5--------5-7-8--------------------------------10-------------------|

Chorus:
(Guitar 1)
|14-----12-----10-------------10h12----10--------------|
|--------------------------------------------12--------|
|11-----9------7---------------7h9-----7---------------|
|--------------------------------------------9---------|
|------------------------------------------------------|
|------------------------------------------------------|

(Guitar 2)
|------------------------------------------------------|
|8-----8------8---8---8--------3-------3-----3--3--3---|
|9-----9------9---9---9--------5-------5-----5--5--5---|
|9-----9------9---9---9--------5-------5-----5--5--5---|
|7-----7------7---7---7--------3-------3-----3--3--3---|
|------------------------------------------------------|

     (Guitar 1)
|---------------|
|12---10--10----|
|---------------|
|9----7---7-----|
|---------------|
|---------------|

(Guitar 2)
|------------------------------------------|
|------------------------------------------|
|7------7---------12-------11--------------|
|7----7---7----------12-------12-----------|
|5--5-------5---5-------12-------12-----12-|
|5------------5---------------------10-----|
ĂŽnscrie-te la newsletter


Join the ranks ! LIKE us on Facebook