Final Call Intro Tab - Shadows Fall




This is the intro to final call by shadows fall
off their new album Threads of Life.
I will add the rest of the tab
as soon as i figure it out.

Tuning: Drop D (D A D G B e)
Intro:

e|----------------------------------|
B|-----5-6-5------6----------8---8--|
G|----7---------7---7-------9---9---|
D|--7---------8-------8---10--10----|
A|----------------------------------|
D|----------------------------------|

e|-----------------------------------------------------------|
B|---5-6-5-------5-6-5------6---5----------------------------|
G|--7--------7---------7---7---6-----------------------------|
D|-8-------7---7----------8---7------------------------------|
A|-----------------------------------------------------------|
D|-----------------------------------------------------------|
ĂŽnscrie-te la newsletter


Join the ranks ! LIKE us on Facebook