Fleshold (ver2) Tab - Shadows Fall




Shadows Fall
Of One Blood
Fleshold

Tuning (CGCFAD)
Key:
.  : palm mute
/  : slide
 V : vibrato
Here's the song in Drop C, sounds good to me
but you may have a different opinion.

 Riff 1
D|-----------------|
A|-----------------|
F|-----------------|
C|-5/4-------------|
G|-3/2-3-3-2-2-0-0-|
C|-----3-3-2-2-0-0-|
 pm    . . . . . .

 Riff 2 (Verse) This is just the "chord" figure out the rythym.
D|----|
A|----|
F|----|
C|----|
G|--0-|
C|--0-|
 pm .

 Riff 3(Chorus)Variation of Riff 3 (choose the one u like)
D|---------------------|---------------------|
A|---------------------|---------------------|
F|---------------------|---------------------|
C|---7/9-7/9-4---5-4---|---7/9-7/9-4---5-4---|
G|---5/7-5/7-2---3-2-3-|---5/7-5/7-2---3-2-5-|
C|-0-----------0-----3-|-0-----------0-----5-|
 pm                      .           .

 Fill (figure the rythym) Fill Variation
D|-----------|    D|-----------|
A|-----------|    A|-----------|
F|-----------|    F|-----------|
C|-4---------|    C|-4---------|
G|-2-3-5-2-0-|    G|-2-3-5-1-0-|
C|---3-5-2-0-|    C|---3-5-1-0-|


 Riff 4
D|-------------------------------|
A|-------------------------------|
F|-------------------------------|
C|-8-------3-------6---------6---|
G|---7---------------5-----5---5-|
C|-----0-0---0-0-0-----0-0-------|
 pm    . .     . .     . .     V

Song Order:
Riff 1 x12
Riff 2 x24
Riff 3 x4
Riff 2 x8
Riff 3 x4
Riff 4 x4
Riff 1 x16
Fill   x1
Riff 4 x8 (slow)
Riff 2 x24
Riff 3 x4
Riff 4 x4
ĂŽnscrie-te la newsletter


Join the ranks ! LIKE us on Facebook