Stillness Intro (ver4) Tab - Shadows Fall




this is an update on my last stillness tab...cant figure out how to edit it...so ill 
start a new. and once again, ill be adding more to it another time. UG guys, could you get 
of the last tab....next time i add this tab there will be alot more


D|-----------------------------------------------------------------|
A|-----------------------------------------------------------------|
F|-----------------------------------------------------------------|
C|-------------------------------------------------------3---------|
G|-5-----5-----2--5-----5-----2---4/5\4-2---------4/54-1---------|
D|-3-0-0-2-0-0-0--3-0-0-2-0-0-0---2/3\2-0-0-0-0-0-2/32---0-0-0-0-|
     . .   . .      . .   . .              . . . .         . . . .

D|-----------------------------------------------------------------|
A|-----------------------------------------------------------------|
F|-----------------------------------------------------------------|
C|-----------------------------------------------------------------|
G|-5-----5-----2--5-----5-----2---4/54-2-----------------1---3*---|
D|-3-0-0-2-0-0-0--3-0-0-2-0-0-0---2/32-0-0-0-0-0-0-0-1-3---3------|
     . .   . .      . .   . .             . . . . . . . .   .


D|-----------------------------------------------------------------|
A|-----------------------------------------------------------------|
F|-----------------------------------------------------------------|
C|-4-----2-----0-----------------4-----2-----0---------------------|
G|-2-----2-----0--5-----5-----5--2-----2-----0-----------5-5-------|
D|---0-0---0-0----3-0-0-2-0-0-2----0-0---0-0----000-000--3-2-------|
     . .   . .      . .   . .      . .   . .    ... ...

D|-----------------------------------------------------------------|
A|-----------------------------------------------------------------|
F|-----------------------------------------------------------------|
C|-----------------------------------------------------------------|
G|-----------------------------------------------------------------|
D|-----------------------------------------------------------------|
ĂŽnscrie-te la newsletter


Join the ranks ! LIKE us on Facebook