Teasn Pleasn Bass Tab - Shadows Fall




Tabbed By: Daniel Corrigan
Email: d_snowboard@hotmail.com 
Enjoy
G|--------------------------------|
D|--------------------------------| X2
A|-0-0-3-4---------0-0-3-4--------|
E|---------2-3-2-3---------2-3-2--|
    
G|--------------|   G|--------------------------------|   
D|----5-8--10---|   D|--------------------------------|    
A|-5------------|   A|-0-0-3-4---------0-0-3-4--------|X2
E|--------------|   E|---------2-3-2-3---------2-3-2--|
  

G|--------------------------------|   
D|--------------------------------|    
A|-0-0-3-4---------0-0-3-4--------|X2
E|---------2-3-2-3---------2-3-2--|

G|--------------------------| G|--------------------------------|  
D|--------------------------| D|--------------------------------| 
A|-5-5-5-5-5----------------| A|-0-0-3-4---------0-0-3-4--------|
E|-----------5-6-6-6-6-6-3--| E|---------2-3-2-3---------2-3-2--|


G|--------------|   G|--------------------------------|   
D|----5-8--10---|   D|--------------------------------|X2    
A|-5------------|   A|-0-0-3-4---------0-0-3-4--------|
E|--------------|   E|---------2-3-2-3---------2-3-2--|

G|--------------------------------|
D|--------------------------------| 
A|-0-0-3-4---------0-0-3-4--------|
E|---------2-3-2-3---------2-3-2--|

G|--------------------------------|   
D|--------------------------------|   
A|-0-0-3-4---------0-0-3-4--------|
E|---------2-3-2-3---------2-3-2--|

G|--------------------------| G|--------------------------------|  
D|--------------------------| D|-2-2-------------2-2------------| 
A|-5-5-5-5-5----------------| A|-0-0-3-4---------0-0-3-4--------|
E|-----------5-6-6-6-6-6-3--| E|---------2-3-2-3---------2-3-2--|

G|--------------------------------| 
D|-2-2-------------2-2------------| 
A|-0-0-3-4---------0-0-3-4--------|
E|---------2-3-2-3---------2-3-2--|

G|--------------------------------------------------------| 
D|--------------------------------------------------------|
A|-2----4---5---4-------4---5-4-2-5-----------------------|X2
E|-0--0---0---0---0-0-0---0-------3-3-3-3-3-5-3-3-3-3-3-5-|

G-----------------|
D-----------------|
A-----------------|
E|-7-7-7-7-7-7-7-7|



G|------------------------------|   G|------------------------------|   
D|------------------------------|X2 D|------------------------------|X2  
A|-----------5-4-----5-5-5-5-3-5|   A|-----------5-4-----5-5-7-7-5-5|    |X2
E|-0-0-0-3-0-----0-3------------|   E|-0-0-0-3-0-----0-3------------|    /
                                                                        /

G|---------------------------------------------------------------|
D|---------------------------------------------------------------|
A|-----------------------------------------------5-5-5-5-5-5-5-|
E|-55503330555055503330555033305550333077705550------------------|



G|--------------------------------------|
D|--------------------------------------|  
A|-0-0-3-4------------------0--0--3--4--|
E|---------2--3--3--2--3--3-------------|
    
G|--------------------------------------|
D|--------------------------------------|  
A|-0-0-3-4------------------0--0--3--4--|
E|---------2--3--3--2--3--3-------------|

G|-------------|
D|-------------|
A|-------------|
E|--------------------|

G|--------------------------------------|
D|--------------------------------------|  
A|-0-0-3-4------------------0--0--3--4--|
E|---------2--3--3--2--3--3-------------|

G|--------------------------------|
D|--------------------------------| X16   
A|-0-0-3-4---------0-0-3-4--------|       
E|---------2-3-2-3---------2-3-2--|  

Thats it, teasin pleasn on bass (:
Plz comment and Rate.     

ĂŽnscrie-te la newsletter

Join the ranks ! LIKE us on Facebook