Letter To A Friend Bass Tab - Shelter




------------------------------------------------------------------------------- 
                     LETTER TO A FRIEND - Shelter 
------------------------------------------------------------------------------- 

Tabbed by: Sander Verkijk (sv_schaap@hotmail.com) 

Intro + verse: 
G-------------------------- 
D-------------------------- 
A-------------------------- 
E--5-5----3-3----0----3---- 

Chorus ("We could've made that change......"): 
G--------------------------------------------------------------------- 
D--------------------------------------------------------------------- 
A--7-7-7-7-7-7-7-7-5-5-5-5-5-5-5-5------------------------------------ 
E----------------------------------3-3-3-3-3-3-3-3-5-5-5-5-5-5-5-5---- 

G---------------------------------------- 
D---------------------------------------- 
A--6---6---6---6------------------------- 
E------------------3-3--3-3--3-3--3-3---- 

-------------------------------------------------------------------------------

ĂŽnscrie-te la newsletter


Join the ranks ! LIKE us on Facebook