Return To Eden Tab - Shelter




"Return to Eden"
 xShelterx
Eternal 2006
Tab by xGovindax
msn: weirdxkid@gmail.com

Standar Tunning

Intro.

|---------------------|
|---------------------|
|---------------------|
|-9-------------------|
|-7(x3)--9-----10-----|
|--------7(x3)-8-(x8)-|

Return! (Rrepeat the intro louder till the verse)

Verses.
(Note: I think that the time for each note is x3)
(Note2: Also you can add an effect or palm muting)
|-------------|
|-------------|
|-------------|
|-9------12-7-|
|-7-9-10-10-5-|
|---7-8-------|

"Can't you see were are we going?" 
At this part you break the palm muting.
|-------------|
|-------------| 
|-------------|   It's the same verse but played louder
|-9------12-7-|  /
|-7-9-10-10-5-| /
|---7-8-------|/

Chorus.
|------------|
|------------|
|------------|
|------------|
|-9-7-5-/10--|
|-7-5-3/-8---| 

Interlude.
|---------|
|---------|
|---------|
|---------|
|-2-4-5---|
|-0-2-3---|




ĂŽnscrie-te la newsletter


Join the ranks ! LIKE us on Facebook