Australia Bass Tab - Shins




Australia
The Shins
Wincing The Night Away (2007)

Intro
|-----6--9--6--------6~-|-----6--9--6--------6-----9~-|
|---6---------6----6----|---6---------6----6----------|
|-7--------------7------|-7--------------7------------|
|-----------------------|-----------------------------|

|-----6--9--6--------6~-|-----6--9--6--------6~-|--------|
|---6---------6----6----|---6---------6----6----|--9-6---|
|-7--------------7------|-7--------------7------|------7-|
|-----------------------|-----------------------|--------|


Part 1
|---------------------------------------------------------|
|----------------------7--11----------9/11-9-7-----9------|
|------------/11-7--9---------9-11-12-----------11---9-11-|
|-9--11--12-----------------------------------------------|

|----------------------------------------------------------------------------|
|----6--9--11-9--------------------------7--11-----------9/11-9-7-----9------|
|-7-------------11-------------/11-7--9---------9-11-12------------11---9-11-|
|-------------------9--11--12------------------------------------------------|

|-----------9-9----------------------------------------------------|
|-9----9-11------9h11-9-7---------9------------------6--9--11------|
|-------------------------11-9-7-----6--9-/11-9-6-7-----------11-9-|
|------------------------------------------------------------------|

|--------------------------------------------------------------------------|
|-------6-9-6------------------------------------------9-------------7-----|
|---6-9-------9-7----6-7-6-----4-6-4-6-7-9-----4-6--7-----7--9----9----7

ĂŽnscrie-te la newsletter


Join the ranks ! LIKE us on Facebook