Know Your Onion Bass Tab - Shins




THE SHINS - KNOW YOUR ONION!
     (Tabbed by w7w7w7)



Intro
G|-----------------------------------------------------------------------|
D|-9---7---6---4---2-----------------------------------------------------|
A|-----------------------------------------------------------------------|
E|-----------------------------------------------------------------------|



Verse, x2
G|-----------------------------------------------------------------------|
D|----------9-----------------9----------------9-6---6-------------------|
A|-7-7----77--9------7-7----77--9-----7-7----77----9-------4-7-----6-9---|
E|---------------7----------------7--------------------5-5-----7-7-------|



Chorus (kind of)
G|-----------------------------------------------------------------------|
D|----6--7-----------7--9--7--6-----------9--7--6----7----7--------------|
A|-4-----------7--6--------------7--------------------55-----------------|
E|----------4-----------------------7--5-------------------55555555------|



Bridge
G|-----------------|
D|-----------------|
A|-----------------|
E|-7-7-7-7-7-7-----|



Verse, x2



Bridge
G|-----------------------------------------------------------------------|
D|-----------------------------------------------------------------------|
A|-----------------------------------------------------------------------|
E|-4-4-4-4-5-5-7-7-------------------------------------------------------|

G|-11---9--8-----------------11---9--------------------------------------|
D|-----------11----------9------------11---------------------------------|
A|----------------7--11--------------------12--11--9---------------------| x2
E|-----------------------------------------------------------------------|

G|-----------------------------------------------------------------------|
D|-----------------------------------------------------------------------|
A|-----------------------------------------------------------------------|
E|-4-4-4-4-5-5-7-7-------------------------------------------------------|

G|----------12----------12----------------12----------------12-----------|
D|-10-10-10-------10-10----------9-9-9-12----------9-9-9-12--------------|
A|-----------------------------------------------------------------------| x2
E|-----------------------------------------------------------------------|

G|----------12----------12-----------------------------------------------|
D|-10-10-10-------10-10----------9-9-9-9-9-9-9-----------9------9-7-6----|
A|-------------------------------------------------10-12--------------9--|
E|-----------------------------------------------------------------------|



Verse, x2

Chorus



Bridge
G|-----------------------------------------------------------------------|
D|-----------------------------------------------------------------------|
A|-------------------------------------------------------7---------------|
E|-77777777-77777777-77777777-77777777-77777777-77777777-----------------|

ĂŽnscrie-te la newsletter


Join the ranks ! LIKE us on Facebook