Turn On Me Tab - Shins




This is basically the intro and main riffs of the entire song.  You should be able to 
out the other verses.  But whatever just have fun.

Tuning: Standard

e|---------------------------------------------------------|
B|---------------------------------------------------------|
G|--------0------------------------------------------------|Repeat
D|----2-3--------2-3-2-----2--------------0----------------|  3x
A|-3----------3---------3----0-3------2-3--------2-3-2-----|
E|---------------------------------3----------3------------|


When Cap'n Mercer starts singing...
e|---------------------------------------------------------|
B|---------------------------------------------------------|
G|--------0------------------------------------------------|
D|----2-3--------2-3-2-----2--------------0----------------|
A|-3----------3---------3----0-3------2-3--------2-3-2-----|
E|---------------------------------3----------3------------|

---------------------------------------------|
---------------------------------------------|
-------0-------------------------------------|
---2-3--------2--------------0---------------|
-3---------3----0-3------2-3--------2-3-2----|
----------------------3----------3-----------|


Thanks.

ĂŽnscrie-te la newsletter


Join the ranks ! LIKE us on Facebook