Dont Cry Out Tab - Shiny Toy Guns






-------------------------------------------------------------------------------
     Don't Cry Out by Shiny Toy Guns
-------------------------------------------------------------------------------
Tabbed by: buba1986
Email: buba1986@hotmail.co.uk

Tuning: Standard

Got it from looking at there live performance on fearless music seen on youtube. Might 
be 100% but you can use it as a sort of template. please rate :o)

Verse (Palm muted)

e|---------------------------------------------------------------------------|
B|-------------------------------6-8------------------------------8-6--------|
G|--7-7-5-7-7-7-5-7-7-7-5-7-7-7-------7-7-5-7-7-7-5-7-7-7-5-7-7-7------------|
D|---------------------------------------------------------------------------|
A|---------------------------------------------------------------------------|
E|---------------------------------------------------------------------------|

Pre Chorus

e|---------------------------------------------------------------------------|
B|----x8----x8---------------------------------------------------------------|
G|--8-----7-------x16--------------------------------------------------------|
D|--------------8------------------------------------------------------------|
A|---------------------------------------------------------------------------|
E|---------------------------------------------------------------------------|

Chorus

e|---------------------------------------------------------------------------|
B|---------------------------------------------------------------------------|
G|---8-0-8-7-8-7-8-7--3-33-3-3-3-3-3-5-3-5-55--------------------------------|
D|---------------------------------------------------------------------------|
A|---------------------------------------------------------------------------|
E|---------------------------------------------------------------------------|

post chorus (palm-mute the 8's)

e|---------------------------------------------------------------------------|
B|---------------------------------------------------------------------------|
G|-------7-------7-------7-----7---7-----7-------7---------------------------|
D|---8-8---8-8-8---8-8-8---8-8---8---8-8---8-8-8---8-8-----------------------|
A|---------------------------------------------------------------------------|
E|---------------------------------------------------------------------------|

bridge (part 1)

e|---------------------------------------------------------------------------|
B|--------4------------------------------------------------------------------|
G|------5---5-------------3-------------8-----------------8------------------|
D|----5---------5-------5---5---5-----8---8---8---8---8-----8---8------------|
A|--3---------3-------5-------5-----6-------6---6---6---6-----6--------------|
E|------------------3--------------------------------------------------------|

bridge (part 2)

e|---------------------------------------------------------------------------|
B|--------4-----------------8------------------------------------------------|
G|------5---5-------------8---8--8----------3---------------2----------------|
D|----5---------5-------8-------8---------5---5---5-------3---3---3----------|
A|--3---------3-------6-----------------5-------5-------3-------3------------|
E|------------------------------------3---------------1----------------------|

played at end of second time playin the last chorus

e|---------------------------------------------------------------------------|
B|---8-6-4-3-4-p-3-----------------------------------------------------------|
G|---------------5-p-3-------------------------------------------------------|
D|---------------------------------------------------------------------------|
A|---------------------------------------------------------------------------|
E|---------------------------------------------------------------------------|

outro

e|---------------------------------------------------------------------------|
B|---------------------------------------------------------------------------|
G|--12-12--12-12--12-12--12/10-10-10/8-8-8/7-7-7-7-7-7/5-5-5-5-5-------------|
D|---------------------------------------------------------------------------|
A|---------------------------------------------------------------------------|
E|---------------------------------------------------------------------------|

Playing order

Intro - x3
Pre chorus
Intro - x2
Pre Chorus - x2
Chorus - x2
post chorus - 1 1/2
pre chorus - x2
chorus - x4
Bridge part 1 - x2
Bridge part 2 - x2
chorus - x 6
outro - x2

| /  slide up
|   slide down
| h  hammer-on
| p  pull-off
| ~  vibrato
| +  harmonic
| x  Mute note






Like us on Facebook