You Are The One Tab - Shiny Toy Guns






http://www.shinytoyguns.com/ is the official band website. I'm not sure if they have a 
record deal, but it is an official band.

The song was tough to tab out, as you can barely hear the riffs in the background. I 
it's played on keyboard, but here it is, on guitar. I couldn't find any chorus or bridge 
but I'm confident that the rest is correct.

INTRO/MAIN RIFF (repeat several times, play periodically throughout song.)

e-|--------------------|
B-|--------------------|
G-|--10--9--10--9--9---|
D-|-7---7--7---7--7----|
A-|--------------------|
E-|--------------------|

VERSE (play the same riff all the way through, straight eighth notes, play once for 
set of words. For example, "Your cover melting inside, with wide eyes you tremble." = one riff.)

e-|--------------------|
B-|--------------------|
G-|--------------------|
D-|--------------------|
A-|--------------------|
E-|-5(x16)-8(x8)-3(x8)-|

PRE-CHORUS

e-|-------------------------------------|
B-|--------------------8--8--10--10--10-|
G-|--9--9--10--10--10-------------------|
D-|-7--7--7---7---7---7--7--7---7---7---|
A-|-------------------------------------|
E-|-------------------------------------|

e-|-------------------------------------|
B-|-------------------------------------|
G-|--10--10--9--9--9--10--10--9--9--9---|
D-|-7---7---7--7--7--7---7---7--7--7----|
A-|-------------------------------------|
E-|-------------------------------------|

CHORUS

I couldn't hear any guitar/keyboard in the chorus.

BRIDGE/BREAK-DOWN

No guitar/keyboard in the bridge either, besides this one riff. After he sing "You'll 
be alone again." and it echoes, play this.

e-|------|
B-|---8--|
G-|--7---|
D-|-5----|
A-|------|
E-|------|






Like us on Facebook