Goodnight Moon Bass Tab - Shivaree




Artist: Shivaree
Song: Goodnight Moon
Tabbed by: Dokkittt


INTRO
G|---------------------------------------------------------------------|
D|-----2-3-2---------------2-3-2---------------2-3-2-------------------|
A|-0-3-------3-2-0-----0-3-------3-2-0-----0-3-------3-2-0-0--0-0--0--0|
E|---------------------------------------------------------------------|


VERSE
G|-------------------------2-2---------------------------2---------4-4-------4-4-|
D|-----2-2-------------0--0----------2-2-------5-----0--0--0---2--2------2--2----| X 2
A|-0--0--------------------------0--0------3--3--3-------------------------------|
E|-----------3--33-3-------------------------------------------------------------|
  

CHORUS                                                                                                                     
G|-----2-2-------2-2---------------------------2-2-------2-2-----------------4-4-------2-2-------2-2-------------------------------------4-4-|
D|-0--0------0--0----------2-2-------2-2---0--0------0--0----------4-4---2--2------0--0------0--0----------2-2-------2-2-------------2--2----|
A|---------------------0--0------0--0--------------------------2--2------------------------------------0--0------0--0------0--00-0-----------|
E|-------------------------------------------------------------------------------------------------------------------------------------------|

G|-----------------------|
D|-----2-3-2-------------|
A|-0-3-------3-2-0-------|
E|-----------------------|


[VERSE]

[CHORUS]

[VERSE]

[CHORUS]


OUTRO
G|------------------4-4--------------------------------------------------------------------------------|
D|--------------2--2----------2-3-2---------------2-3-2---------------2-3-2---------------2-3-2--------|
A|0-0--0-0--0-------------0-3-------3-2-0-----0-3-------3-2-0-----0-3-------3-2-0-----0-3-------3-2-0--|
E|-----------------------------------------------------------------------------------------------------|

ĂŽnscrie-te la newsletter


Join the ranks ! LIKE us on Facebook