Good Lookin Out Bass Tab - Sick of It All






------------------------------------------------------------------------------- 
                   GOOD LOOKIN' OUT - Sick of it All 
------------------------------------------------------------------------------- 

By: Rob Langille 

Intro 
G|-------------- 
D|-------------- 
A|-------------- 
E|--2>-2>-2----- 

Verse 1 
G|-------------------------------------------- 
D|-------------------------------------------- 
A|-----5>-0>-2>----5>-0>-4>-0>----5>-0>-2>---- 
E|--2>----------2>-------------2>------------- 

Pre-Chorus 
G|----------------------------------- 
D|----------------------------------- 
A|-----5>-7>-5>-0>----5>-7>-5>-0>---- 
E|--2>-------------2>---------------- 

Chorus 
G|--------------------------------- 
D|--------------------------------- 
A|------------------------5>-0>---- 
E|--2>-4>-0>-2>-4>-5>--0>---------- 

Verse 2 
G|------------------------------------------------------------- 
D|------------------------------------------------------------- 
A|-----5>-0>-4>-0>------5>-0>-2>----5>-0>-4>-0>----5>-0>-2>---- 
E|--2>--------------2>----------2>-------------2>-------------- 

Pre-Chorus 
Chorus 

Outro X 3 
G|--------------------------- 
D|-----------77-55----------- 
A|--7>-5>-0>--------77-55---- 
E|--------------------------- 

Ending 
G|--------------------- 
D|--------------------- 
A|--77--55--00-0-00---- 
E|--------------------- 

Necter. 

===============================================================================






Like us on Facebook