Stood For Nothing Tab - Sick of It All






Sick Of It All
Stood For Nothing
Terror Firmer Soundtrack
Tabbed by James Low whatisaturnip@yahoo.co.uk

Tuning- EADGBE

STOOD FOR NOTHING, STOOD FOR NOTHING

---------------------------------------------|
---------------------------------------------|
66666666666666666666666666666666666666-------|
66666666666666666666666666666666666666-------|
44444444444444444444444444444444444444-------|
---------------------------------------------|

---------------------------------------------|
---------------------------------------------|
---9-------9-------6666666666666666666666666-|
---9---8---9---8---6666666666666666666666666-|
---7---8---7---8---4444444444444444444444444-|
-------6-------6-----------------------------|

---------------------------------------------|
---------------------------------------------|
-------7---9---------------7---9-------------|
---9---7---9---7---8---9---7---9---7---x-x-x-|
---9---5---7---7---8---9---5---7---7---x-x-x-|
---7-----------5---6---7-----------5---x-x-x-|
                                       harm

---------------------------------------------|
---------------------------------------------|
--6666666666666666666666---6--6--6--6--------|
--6666666666666666666666---6--6--6--6--------|
--4444444444444444444444---4--4--4--4--------|
---------------------------------------------|

Enjoy!






Like us on Facebook