Glosoli Bass Tab - Sigur Ros




-------------------------------------------------------------------------------
     Glsli - Sigur Rs
-------------------------------------------------------------------------------
Very simple song off of the new album Takk...I'm positive this is correct, the only 
I can't and won't get is the bowed guitar parts.
Tabbed by:mogwai777/chris vinkler
Email:

Tuning:Standard

Album Version Bass Verse
G|---------------------------------------------------------------------------|
D|---------------------------------------------------------------------------|
A|---------------------------------------------------------------------------|
E|10-/-5--/-7/3--------------------------------------------------------------|
Live Version Bass Verse in Drop D
G|---------------------------------------------------------------------------|
D|---------------------------------------------------------------------------|
A|---------------------------------------------------------------------------|
D|-0--/-7--/-9/5-------------------------------------------------------------|
Bass Chorus:
G|---------------------------------------------------------------------------|
D|---------------------------------------------------------------------------|
A|---------------------------------------------------------------------------|
E|10--/--12--/--8--/--7------------------------------------------------------|

Pre-Climax/Climax Bass
G|---------------------------------------------------------------------------|
D|---------------------------------------------------------------------------|
A|---------------------------------------------------------------------------|
E|10x8--12x8--8x8--7x8-------------------------------------------------------|
And the Guitar for the climax is just playing what the bass is playing only with high 
chords being finger picked, each played 8 times
e|10-12-8--7-----------------------------------------------------------------|
B|x--x--x--x-----------------------------------------------------------------|
G|7--9--5--4-----------------------------------------------------------------|
D|---------------------------------------------------------------------------|
A|---------------------------------------------------------------------------|
E|---------------------------------------------------------------------------|
And if your fingers stretch well enough, you can play it like I do to get more sound.
e|10-12-8--7-----------------------------------------------------------------|
B|x--x--x--x-----------------------------------------------------------------|
G|7--9--5--4-----------------------------------------------------------------|
D|x--x--x--x-----------------------------------------------------------------|
A|5--7--3--2-----------------------------------------------------------------|
E|---------------------------------------------------------------------------|

Like I said, very very simple song, yet effective.

Song Order:
Bass Verse x15
Bass Chorus x2
Bass Verse x14
Bass Chorus x2
Pre-Climax Bass x5
Climax Bass and Guitar x5
| /  slide up
|   slide down
| h  hammer-on
| p  pull-off
| ~  vibrato
| +  harmonic
| x  Mute note
===============================================================================

ĂŽnscrie-te la newsletter


Join the ranks ! LIKE us on Facebook