Ny Batteri (ver2) Bass Tab - Sigur Ros




This is an update on the last tab which was incorrect in parts.

1:37
G|---7--7----7/h9-|---7--7----7/h9-|---7--7-------7-|---7--7-------7/|
D|--9--9----9----9|--9--9----9----9|--5--5-----0-5--|--5--5-----0-5--|
A|----------------|----------------|----------------|----------------|
E|----------------|----------------|----------------|----------------|

Repeat Until

5:01
G|--9~------------|----------------|----------------|----------------|
D|----------------|----------------|----------------|----------------|
A|----------------|----------------|----------------|----------------|
E|----------------|----------------|----------------|----------------|

5:15
G|---7--7----7/h9-|---7--7----7/h9-|---7--7-------7-|---7--7-------7/|
D|--9--9----9-----|--9--9----9-----|--5--5-----0-5--|--5--5-----0-5--|
A|----------------|----------------|----------------|----------------|
E|----------------|----------------|----------------|----------------|

Repeat Until

6:02
G|---7--7----7/h9-|---7--7----7/h9-|---7--7-------7-|---7-------7/---|
D|--9--9----9----9|--9--9----9----9|--5--5-----0-5--|--5-----0-5-----|
A|----------------|----------------|----------------|----------------|
E|----------------|----------------|----------------|----------------|

Repeat Until

7:00

G|--9~------------|----------------|----------------|----------------|
D|----------------|----------------|----------------|----------------|
A|----------------|----------------|----------------|----------------|
E|----------------|----------------|----------------|----------------|





ĂŽnscrie-te la newsletter


Join the ranks ! LIKE us on Facebook