Untitled 4 Njosnavelin Tab - Sigur Ros




Sigur Ros - Untitled 4 (Njosnavelin)

a pretty big name band from iceland, amazed no one has tabbed anything else
http://www.sigur-ros.com/   is their homepage 
Author:TransientBlur
Email: TransientBlur@netscape.net
Tuning:Standard EADGBe

Notes: I tabbed this from a video of them playing the song
live on the Kilborn show. I think I got the video from their website
if you want to check the tabbing. This song is played with 
massive amounts of reverb. Be sure to hit each note carefully
or you will be stuck with an off note for quite a while. 
Avoid moving your hands around, Riff 3 should be played in just 2 or 3 hand positions. 
Enjoy, tell me what you think. 

Riff 1
|-----------------------------------(0)----|
|----1------1-0--------1-------1--3--------|
|----------------0-------------------------|
|--3------2---------3-------2--------------|
|-------3-----------------3----------------|
|------------------------------------------|

Riff 2
|-----------------0---------|
|----1---1-----3------------|
|---------------------------|
|--3---2----0---------------|
|---------------------------|
|---------------------------|

Riff 3
|-------13-----12-------------------|
|----------------------13----12-----|
|----14----14-------12----12----12--|
|--15------------14-----------------|
|-----------------------------------|
|-----------------------------------|

|------13----12---------------------|
|----------------------13----15--17-|
|---14----14--------12----12--------|
|15--------------14-----------------|
|-----------------------------------|
|-----------------------------------|

Chords
Played with a bow, he plays other chords too. 
|-----------|
|-----------|
|-----------|
|-10--12----|
|-10--12----|
|--8--10----|

ĂŽnscrie-te la newsletter


Join the ranks ! LIKE us on Facebook