Untitled 8 Popplagio Tab - Sigur Ros




intro/verse

e|---------------------------------|----------------------------------|
B|---------------------------------|----------------------------------|
G|---------------------------------|----------------------------------|
D|---0---5-0----0---5-----0------0-|---0---5-0----0---5------0------0-|
A|-5---5------5---5---59---910---|-7---7------7---7---710---10/9---|
E|---------------------------------|----------------------------------|

prechorus/chorus

e|-------------------------------------------------|
B|---------0-----3--------|---------0-----3--------|
G|---0-------0------------|---0-------0------------|
D|-----0-------0-----0----|-----0-------0-----0----|
A|-------0-------------0--|-------0-------------0--|
E|-5---------------5------|-2---------------2------|


heavy part

e|---------------------------------|
B|---------------------------------|
G|---------------------------------|
D|---------------------------------|
A|-12--10--14----------------------|
E|-0---0---0-----------------------|


this is such an amazing song. i've tabbed it myself but it should be correct. have fun!

ĂŽnscrie-te la newsletter


Join the ranks ! LIKE us on Facebook