Broken Stars Tab - Silverstein






---------------------------------------------------------------------------
BROKEN STARS - Silverstein
---------------------------------------------------------------------------
Tabbed by: Shinsen88
Email: shinsen88@yahoo.com

Tuning: C#G#C#F#A#D#

INTRO
0:00-0:17 
D#|--------------------------------------------------------------|
A#|--------------------------------------------------------------|
F#|-10~--12-5~--10-7~--10-12~--9~--10~--12-17~--19-15~--17-14-12-|
C#|--x~---x-x~---x-x~---x--x~--x~---x~---x--x~---x--x~---x--x--x-|
G#|--8~--10-3~---8-5~---8-10~--7~---8~--10-15~--17-13~--15-12-10-|
C#|--------------------------------------------------------------|

0:18-0:27 


CHORUS PART 2
0:50-1:06
D#|---------------------|
A#|---------------------|
F#|-14--15--14--12------|
C#|--x---x---x---x--0-0-|
G#|-12--13--12--10--0-0-| x2
C#|-----------------0-0-|

1:07-1:10 REPEAT FILL

1:11-1:45 REPEAT CHORUS PART 1, 2

INTERLUDE
1:46-2:05
D#|------------------------------------------|
A#|------------------------------------------|
F#|-15-15-14-14-12-12-10-10-12-12-10-10-9-10-|
C#|--x--x--x--x--x--x--x--x--x--x--x--x-x--x-|
G#|-13-13-12-12-10-10--8--8-10-10--8--8-7--8-|
C#|------------------------------------------|

D#|-----------------------------------|
A#|-----------------------------------|
F#|-10-10-10-10-10-9-10-10-10-10-10-9-|
C#|--x--x--x--x--x-x--x--x--x--x--x-x-|
G#|--8--8--8--8--8-7--8--8--8--8--8-7-|
C#|-----------------------------------|

D#|------------------------------------------|
A#|------------------------------------------|
F#|-15-15-14-14-12-12-10-10-12-12-10-10-9-10-|
C#|--x--x--x--x--x--x--x--x--x--x--x--x-x--x-|
G#|-13-13-12-12-10-10--8--8-10-10--8--8-7--8-|
C#|------------------------------------------|

D#|------------------------------------|
A#|------------------------------------|
F#|-9-9-9-9-9-9-9-14-14-14-14-14-14-14-|
C#|-x-x-x-x-x-x-x--x--x--x--x--x--x--x-|
G#|-7-7-7-7-7-7-7-12-12-12-12-12-12-12-|
C#|------------------------------------|

D#|------------------------------------------|
A#|------------------------------------------|
F#|-15-15-14-14-12-12-10-10-12-12-10-10-9-10-|
C#|--x--x--x--x--x--x--x--x--x--x--x--x-x--x-|
G#|-13-13-12-12-10-10--8--8-10-10--8--8-7--8-|
C#|------------------------------------------|

D#|----------------------------------------------------------|
A#|----------------------------------------------------------|
F#|-9-9-9-9-9-10-9-9-9-9-9-12-9-9-9-9-9-12-14-14-14-14-14-14-|
C#|-x-x-x-x-x--x-x-x-x-x-x--x-x-x-x-x-x--x--x--x--x--x--x--x-|
G#|-7-7-7-7-7--8-7-7-7-7-7-10-7-7-7-7-7-10-12-12-12-12-12-12-|
C#|----------------------------------------------------------|

2:06-2:25 REPEAT CHORUS PART 1, 2


END CHORUS WITH 2:26-2:30
D#|----|
A#|----|
F#|----|
C#|-0~-|
G#|-0~-|
C#|-0~-|


BREAKDOWN
2:31-3:07
D#|-------------------------------------------------|
A#|-------------------------------------------------|
F#|-10-10-9-7---------------12-12-10-9--------------|
C#|--x--x-x-x----------------x--x--x-x--------------|
G#|--8--8-7-5-0-0-0--0-0-0--10-10--8-7-0-0-0--0-0-0-|
C#|-----------0-0-0--0-0-0-------------0-0-0--0-0-0-|
              . . .  . . .             . . .  . . .
D#|------------------------------|
A#|------------------------------|
F#|-10-10-9-7--------------------|
C#|--x--x-x-x---------------8-10-|
G#|--8--8-7-5-0-0-0--0-0-0--8-10-|
C#|-----------0-0-0--0-0-0--8-10-|
              . . .  . . .

BREAKDOWN HARMONY
D#|--------------------------------------|
A#|--------------------------------------|
F#|-14-14-12-10--------------15-15-14-12-|
C#|--x--x--x--x---------------x--x--x--x-|
G#|-12-12-10--8-0-0-0--0-0-0-13-13-12-10-|
C#|-------------0-0-0--0-0-0-------------|
                . . .  . . .


END WITH 
3:07-END
D#|--------------------------|
A#|--------------------------|
F#|-12-10-15-17-19-21--------|
C#|--x--x--x--x--x--x-----0~-|
G#|-10--8-13-15-17-19-0-0-0~-|
C#|-------------------0-0-0~-|
                      . .

HARMONY
D#|------------------------|
A#|------------------------|
F#|------------------------|
C#|-8-10-8-10-10-12-----0~-|
G#|-8-10-8-10-10-12-0-0-0~-|
C#|-8-10-8-10-10-12-0-0-0~-|
                    . .



| .  palm mute
|   tremolo pick
| *  pinch harmonic
| ~  let note ring
| /  slide up
|   slide down
| h  hammer-on
| p  pull-off
| v  vibrato
| +  natural harmonic
| x  mute note
=============================================================


ĂŽnscrie-te la newsletter


Like us on Facebook