Smile In Your Sleep (ver3) Bass Tab - Silverstein




SMILE IN YOUR SLEEP

Tuning:Standard

intro/verse
|----------------------------------------|x2
|-222-2-2--222-2-2-----------000-0-0--2-|
|-------------------333-3-3--------------|
|----------------------------------------|

|----------------------------------------|
|-222-2-2--222-2-2-----------000-0-0-----|
|-------------------333-3-3-----------7-|
|----------------------------------------|


chorus
|--------------------------------------------------------------------|x2
|--------------------------------------------------------------------|
|---------------------------------33333333333333333333333333333333---|
|-00000000000000000000000000000000--------------------------------3-|

verse
|----------------------------------------|
|-222-2-2--222-2-2-----------000-0-0--2-|
|-------------------333-3-3--------------|
|----------------------------------------|

|----------------------------------------|
|-222-2-2--222-2-2-----------000-0-0-----|
|-------------------333-3-3-----------7-|
|----------------------------------------|

chorus
|--------------------------------------------------------------------|x2
|--------------------------------------------------------------------|
|---------------------------------33333333333333333333333333333333---|
|-00000000000000000000000000000000--------------------------------3-|

bridge-3rd and 4th time is a bit slower
|-------------------------------------------|x4
|-------------------------------0-0---------|
|---------------------3-3-3333------2222-2-|
|-0-0-0000--0-0-0000------------------------|

breakdown
|------------------------|
|--------------------0~--|
|--------------3~--------|
|-0~----(0~)-------------|

|--------------------------------------|
|--------------------0000000000000000--|
|--------------3~----------------------|
|-0~----(0~)---------------------------|

chorus
|--------------------------------------------------------------------|x2
|--------------------------------------------------------------------|
|---------------------------------33333333333333333333333333333333---|
|-00000000000000000000000000000000--------------------------------3-|

outro
|-------------------------------------------|
|-------------------------------0-0---------|
|---------------------3-3-3333------222222--|
|-0-0-0000--0-0-0000----------------------0-|
===========================================================================

ĂŽnscrie-te la newsletter


Join the ranks ! LIKE us on Facebook