Smile In Your Sleep (ver6) Tab - Silverstein




Not sure if this is correct but it sounds like it to me...

Intro/Verse Guitar 1 (Tapping): 3x (00:00) 
E|-------------------------x2-|---------------------------------------------------x1-|
B|----------------------------|------------------------------------------------------|
G|----------------------------|------------------------------------------------------|
D|--9-----17-16---9-19--16-17-|--5-12--14-12---5-16--12-14---7-17--16--14--12--14-16-|
A|-7--15-7-------7------------|-3-----3-------3-------------5-----5---5---5---5------|
D|----------------------------|------------------------------------------------------|

Chorus Guitar 1: 1x  (00:31)
E|-------------------------------------------------------------------------|
B|-------------------------------------------------------------------------|
G|-99999999-99999999-99999999-99999999-55555555-55555555-55555555-5555-xx5-|
D|-99999999-99999999-99999999-99999999-55555555-55555555-55555555-5555-xx5-|
A|-77777777-77777777-77777777-77777777-33333333-33333333-33333333-3333-xx3-|
D|-------------------------------------------------------------------------|

Chorus Guitar 1: 1x  (00:41)                                              
E|-------------------------------------|------------------------------------|
B|-------------------------------------|-------------------------------------|
G|-------------------------------------|----------------------------------7*---|
D|---9-7-55---9-7-55---9-7-55---9-7-55-|-5-5-7-7--5-5-7-7--5-5-7-7--55-77----|
A|-77-7-7---77-7-7---77-7-7---77-7-7---|-------------------------------------|
D|-------------------------------------|-------------------------------------|

Chorus Guitar 2: 2x (00:31)
E|-------------------------------------------------------------------------|
B|-------------------------------------------------------------------------|
G|-99999999-99999999-99999999-99999999-55555555-55555555-55555555-5555-xx5-|
D|-99999999-99999999-99999999-99999999-55555555-55555555-55555555-5555-xx5-|
A|-77777777-77777777-77777777-77777777-33333333-33333333-33333333-3333-xx3-|
D|-------------------------------------------------------------------------|

Verse Guitar 1: 2x (00:52)
E|-------------------------x2-|---------------------------------------------------x1-|
B|----------------------------|------------------------------------------------------|
G|----------------------------|------------------------------------------------------|
D|--9-----17-16---9-19--16-17-|--5-12--14-12---5-16--12-14---7-17--16--14--12--14-16-|
A|-7--15-7-------7------------|-3-----3-------3-------------5-----5---5---5---5------|
D|----------------------------|------------------------------------------------------|

Verse Guitar 2: 2x (00:52)              2nd Time
E|-------------------------------------|S^/-^/-^/|
B|-------------------------------------|/^L^/.^/.|
G|-------------------55555555-77777777-|-/^I^/-^/|
D|-22222222-22222222-55555555-77777777-|/^./^D^/.|
A|-22222222-22222222-33333333-55555555-|-/^-/^E^/|
D|-22222222-22222222-------------------|/^./^./^!|
PM........ ........ ........ ........

 ______________________
|                      |
|REAPEAT CHORUS (01:30)|
|______________________|


Bridge Guitar 1(1x) & 2(2x): (01:33)
B|--------------------------------|
G|-----------------55-555--77-222-|
D|-22-222--22-222--55-555--77-222-|
A|-22-222--22-222--33-333--55-000-|
D|-22-222--22-222-----------------|

Bridge Guitar 1: 2nd Time (01:44)
E|-------15151414------------15151414-------------15151414-------------|
B|---------------1515----------------1515-----------------1515---------|
G|-----------------------------------------55-------------------77-222-|
D|-22------------------22------------------55-------------------77-222-|
A|-22------------------22------------------33-------------------55-000-|
D|-22------------------22----------------------------------------------|

Bridge Guitar 1: x2 (01:54)
E|-----------------------------------------------------------------| 
B|-----------------------------------------------------------------| 
G|-99-1212-1111-9999-1212-1111111-99-1212-1111-9999-1212-1111-1212-|
D|-xx-x-x--x-x--xxxx-x-x--x-x-x-x-xx-x-x--x-x--xxxx-x-x--x-x--x-x--| 
A|-77-1010-9-9--7777-1010-9-9-9-9-77-1010-9-9--7777-1010-9-9--1010-| 
D|-----------------------------------------------------------------| 

E|---------------------------------------------------------------------| 
B|---------------------------------------------------------------------| 
G|-1414141414141414-1212121212121212-1414141414141414-1616161616161616-| 
D|-x-x-x-x-x-x-x-x--x-x-x-x-x-x-x-x--x-x-x-x-x-x-x-x--x-x-x-x-x-x-x-x--| 
A|-1212121212121212-1010101010101010-1212121212121212-1414141414141414-| 
D|---------------------------------------------------------------------| 

Bridge Guitar 2: 2x (01:52)
E|--------------------------------|
B|--------------------------------|
G|-----------------55-555--77-222-|
D|-22-222--22-222--55-555--77-222-|
A|-22-222--22-222--33-333--55-000-|
D|-22-222--22-222-----------------|

Interlude Guitar 1: 2x (02:20)
E|--------------|--------------|---------------|--------------|
B|--------------|--------------|---------------|--------------|
G|--------------|--------------|---------------|--------------|
D|--9-17--17-17-|--9-19--19-19-|--9-21---21-21-|--9-21--21-21-|
A|-7-----7------|-7-----7------|-7-----7-------|-7-----7------|
D|--------------|--------------|---------------|--------------|

E|--------------|--------------|--------------|--------------|
B|--------------|--------------|--------------|--------------|
G|--------------|--------------|--------------|--------------|
D|--5-17--17-17-|--5-16--16-16-|--7-17--17-17-|--7-14--14-14-|
A|-3-----3------|-3-----3------|-5-----5------|-5-----5------|
D|--------------|--------------|--------------|--------------|

Interlude Guitar 2: (02:38)
|S^/-^/-^/|^/.^/.^/!/|
|/^L^/.^/.|/-^/-^/E/^|
|-/^I^/-^/|^/.^/D/^./|
|/^./^D^/.|/-^/I/^-/^|
|-/^-/^E^/|^/L/^./^./|
|/^./^./^!|/S/^-/^-/^|

 ______________________
|                      |
|REAPEAT CHORUS (02:41)|
|______________________|


Bridge Guitar 1(1x) & 2(2x): (03:02)
E|--------------------------------|
B|--------------------------------|
G|-----------------55-555--77-222-|
D|-22-222--22-222--55-555--77-222-|
A|-22-222--22-222--33-333--55-000-|
D|-22-222--22-222-----------------|

Bridge Guitar 1: 2nd Time (03:02)
E|-------15151414------------15151414-------------15151414-------------|
B|---------------1515----------------1515-----------------1515---------|
G|-----------------------------------------55-------------------77-222-|
D|-22------------------22------------------55-------------------77-222-|
A|-22------------------22------------------33-------------------55-000-|
D|-22------------------22----------------------------------------------|

Outro Guitar 1 & 2: (03:11)
E|----------------|
B|----------------|
G|----------------|
D|-4-4-4-4-4-4--2-|
A|-4-4-4-4-4-4--2-|
D|-4-4-4-4-4-4--2-|

ĂŽnscrie-te la newsletter


Join the ranks ! LIKE us on Facebook