Smile In Your Sleep (ver9) Tab - Silverstein






Guitar 1's Parts

|----------------------------------------------------------|x4
|----------------------------------------------------------|
|--------0-------------0-------------0-----0------0--------|
|---9---------0---0---------0----0-------------------------|
|-----10---10-------10---10--------9---9-----9------9------|
|-0-------------8-------------10---------10----10-----10---|

|----------------------------------------|
|----------------------------------------|
|----------------------------------------|
|--------0------0-------------0------0---|
|---10-----10-----10-----9------9------9-|
|-8----8------8-------10---10-----10-----|
                                                    
|-----------------------------------------------|
|-----------------------------------------------|
|---------------------------------12------12----|
|----------0-------12----------------0-------0--|
|----10------10-------10----10---------10-------|
|-12----12------12-------12----12---------------|x2

Pre-chorus
|-----------------------------------------------------|
|-----------------------------------------------------|
|---------------5--5-5--5-5-5--7-7-7-7-7-7------------|
|-2--2-2--2-2-2-5--5-5--5-5-5--7-7-7-7-7-7------------|
|-2--2-2--2-2-2-3--3-3--3-3-3--5-5-5-5-5-5-5-4-5-4-5-2|
|-0--0-0--0-0-0----------------------------3-2-5-2-3-0|

|-----------------------------------------------------|
|-----------------------------------------------------|
|---------------5--5-5--5-5-5--7-7-7-7-7-7------------|
|-2--2-2--2-2-2-5--5-5--5-5-5--7-7-7-7-7-7-5-5-4-5-4--|
|-2--2-2--2-2-2-3--3-3--3-3-3--5-5-5-5-5-5-5-5-4-5-4--|
|-0--0-0--0-0-0----------------------------3-3-2-3-2p0|

Chorus
|-----------------------------------------------------------------|
|-----------------------------------------------------------------|
|-9-9-9-9-9-9-9-9-11-11-11-11-11-11-11-11-12-12-12-12-12-12-12-12-|
|-x-x-x-x-x-x-x-x--x--x--x--x--x--x--x--x--x--x--x--x--x--x--x--x-|
|-7-7-7-7-7-7-7-7--9--9--9--9--9--9--9--9-10-10-10-10-10-10-10-10-|
|-----------------------------------------------------------------|

|-------------------------|
|-------------------------|
|-------------------------|
|-12--12-10-10-9-9-7------|
|-------------------------|
|-------------------------|

|-----------------------------------------------------------------|
|-----------------------------------------------------------------|
|-9-9-9-9-9-9-9-9-11-11-11-11-11-11-11-11-12-12-12-12-12-12-12-12-|
|-x-x-x-x-x-x-x-x--x--x--x--x--x--x--x--x--x--x--x--x--x--x--x--x-|
|-7-7-7-7-7-7-7-7--9--9--9--9--9--9--9--9-10-10-10-10-10-10-10-10-|
|-----------------------------------------------------------------|

|-------------------------|
|-------------------------|
|-12-12-12-12-12-12-12-12-|
|--x--x--x--x--x--x--x--x-|
|-10-10-10-10-10-10-10-10-|
|-------------------------|

|-----------------------------------------------------------------|
|-----------------------------------------------------------------|
|-9-9-9-9-9-9-9-9-11-11-11-11-11-11-11-11-12-12-12-12-12-12-12-12-|
|-x-x-x-x-x-x-x-x--x--x--x--x--x--x--x--x--x--x--x--x--x--x--x--x-|
|-7-7-7-7-7-7-7-7--9--9--9--9--9--9--9--9-10-10-10-10-10-10-10-10-|
|-----------------------------------------------------------------|

|-------------------------|
|-------------------------|
|-12-12-12-12-12-12-12-12-|
|--x--x--x--x--x--x--x--x-|
|-10-10-10-10-10-10-10-10-|
|-------------------------|

|-------------------------------------------------------------------------|
|-------------------------------------------------------------------------|
|-9-9-9-9-9-9-9-9-9-9-9-9-9-9-9-9---7---------------7-7-7-7-7-7-7-7-------|
|-x-x-x-x-x-x-x-x-x-x-x-x-x-x-x-x---7---------------7-7-7-7-7-7-7-7-------|
|-7-7-7-7-7-7-7-7-7-7-7-7-7-7-7-7---5---------------5-5-5-5-5-5-5-5-------|
|-------------------------------------0-0-0-0-0-0-------------------------|
      . . . . . . 
Pre-chorus
|----------------------------------------------------|
|----------------------------------------------------|
|---------------5--5-5--5-5-5-7--7-7--7-7-7----------|
|-2--2-2--2-2-2-5--5-5--5-5-5-7--7-7--7-7-7-5-4-7-4-5|
|-2--2-2--2-2-2-3--3-3--3-3-3-5--5-5--5-5-5-5-4-7-4-5|
|-0--0-0--0-0-0-----------------------------3-2-5-2-3|

|-------------------------------------------------------|
|-------------------------------------------------------|
|---------------5--5-5--5-5-5-7--7-7--7-7-7-------------|
|-2--2-2--2-2-2-5--5-5--5-5-5-7--7-7--7-7-7-5-5-4-5-4---|
|-2--2-2--2-2-2-3--3-3--3-3-3-5--5-5--5-5-5-5-5-4-5-4---|
|-0--0-0--0-0-0-----------------------------3-3-2-3-2p0-|

Chorus
|-----------------------------------------------------------------|
|-----------------------------------------------------------------|
|-9-9-9-9-9-9-9-9-11-11-11-11-11-11-11-11-12-12-12-12-12-12-12-12-|
|-x-x-x-x-x-x-x-x--x--x--x--x--x--x--x--x--x--x--x--x--x--x--x--x-|
|-7-7-7-7-7-7-7-7--9--9--9--9--9--9--9--9-10-10-10-10-10-10-10-10-|
|-----------------------------------------------------------------|

|-------------------------|
|-------------------------|
|-------------------------|
|-12--12-10-10-9-9-7------|
|-------------------------|
|-------------------------|

|-----------------------------------------------------------------|
|-----------------------------------------------------------------|
|-9-9-9-9-9-9-9-9-11-11-11-11-11-11-11-11-12-12-12-12-12-12-12-12-|
|-x-x-x-x-x-x-x-x--x--x--x--x--x--x--x--x--x--x--x--x--x--x--x--x-|
|-7-7-7-7-7-7-7-7--9--9--9--9--9--9--9--9-10-10-10-10-10-10-10-10-|
|-----------------------------------------------------------------|

|-------------------------|
|-------------------------|
|-12-12-12-12-12-12-12-12-|
|--x--x--x--x--x--x--x--x-|
|-10-10-10-10-10-10-10-10-|
|-------------------------|

|-----------------------------------------------------------------|
|-----------------------------------------------------------------|
|-9-9-9-9-9-9-9-9-11-11-11-11-11-11-11-11-12-12-12-12-12-12-12-12-|
|-x-x-x-x-x-x-x-x--x--x--x--x--x--x--x--x--x--x--x--x--x--x--x--x-|
|-7-7-7-7-7-7-7-7--9--9--9--9--9--9--9--9-10-10-10-10-10-10-10-10-|
|-----------------------------------------------------------------|

|-------------------------|
|-------------------------|
|-12-12-12-12-12-12-12-12-|
|--x--x--x--x--x--x--x--x-|
|-10-10-10-10-10-10-10-10-|
|-------------------------|

|-------------------------------------------------------------------------|
|-------------------------------------------------------------------------|
|-9-9-9-9-9-9-9-9-9-9-9-9-9-9-9-9---7---------------7-7-7-7-7-7-7-7-------|
|-x-x-x-x-x-x-x-x-x-x-x-x-x-x-x-x---7---------------7-7-7-7-7-7-7-7-------|
|-7-7-7-7-7-7-7-7-7-7-7-7-7-7-7-7---5---------------5-5-5-5-5-5-5-5-------|
|-------------------------------------0-0-0-0-0-0-------------------------|
      . . . . . .
Bridge
|-------------------------------------------------|
|-------------------------------------------------|
|-12-12-12-12-12-12-12-12-11-11-11-11-11-11-11-11-|
|--x--x--x--x--x--x--x--x--x--x--x--x--x--x--x--x-|
|-10-10-10-10-10-10-10-10--9--9--9--9--9--9--9--9-|
|-------------------------------------------------|

|-------------------------------------------------|
|-------------------------------------------------|
|-16-16-16-17-14-14-14-16-12-12-12-12-12-12-12-14-|
|--x--x--x--x--x--x--x--x--x--x--x--x--x--x--x--x-|
|-14-14-14-15-12-12-12-14-10-10-10-10-10-10-10-12-|
|-------------------------------------------------|

|-------------------------------------------------|
|-------------------------------------------------|
|-12-12-12-12-12-12-12-12-11-11-11-11-11-11-11-11-|
|--x--x--x--x--x--x--x--x--x--x--x--x--x--x--x--x-|
|-10-10-10-10-10-10-10-10--9--9--9--9--9--9--9--9-|
|-------------------------------------------------|

|-------------|
|-------------|
|-9----7----5-|
|-9----7----5-|
|-7----5----3-|
|-------------|

|----------------------------------------------------|x2
|----------------------------------------------------|
|--------0-------------0-------------0-----0----0----|
|---9---------0---0---------0----0-------0----0-----0|
|-----10---10-------10---10--------9---9----9-----9--|
|-0-------------8-------------10---------------------|

|----------------------------------------|
|----------------------------------------|
|----------------------------------------|
|--------0------0-------------0------0---|
|---10-----10-----10-----9------9------9-|
|-8----8------8-------10---10-----10-----|
                                                     x2
|-----------------------------------------------|
|-----------------------------------------------|
|---------------------------------12------12----|
|----------0-------12----------------0-------0--|
|----10------10-------10----10---------10-------|
|-12----12------12-------12----12---------------|

Chorus
|-----------------------------------------------------------------|
|-----------------------------------------------------------------|
|-9-9-9-9-9-9-9-9-11-11-11-11-11-11-11-11-12-12-12-12-12-12-12-12-|
|-x-x-x-x-x-x-x-x--x--x--x--x--x--x--x--x--x--x--x--x--x--x--x--x-|
|-7-7-7-7-7-7-7-7--9--9--9--9--9--9--9--9-10-10-10-10-10-10-10-10-|
|-----------------------------------------------------------------|

|-------------------------|
|-------------------------|
|-------------------------|
|-12--12-10-10-9-9-7------|
|-------------------------|
|-------------------------|

|-----------------------------------------------------------------|
|-----------------------------------------------------------------|
|-9-9-9-9-9-9-9-9-11-11-11-11-11-11-11-11-12-12-12-12-12-12-12-12-|
|-x-x-x-x-x-x-x-x--x--x--x--x--x--x--x--x--x--x--x--x--x--x--x--x-|
|-7-7-7-7-7-7-7-7--9--9--9--9--9--9--9--9-10-10-10-10-10-10-10-10-|
|-----------------------------------------------------------------|

|-------------------------|
|-------------------------|
|-12-12-12-12-12-12-12-12-|
|--x--x--x--x--x--x--x--x-|
|-10-10-10-10-10-10-10-10-|
|-------------------------|

|-----------------------------------------------------------------|
|-----------------------------------------------------------------|
|-9-9-9-9-9-9-9-9-11-11-11-11-11-11-11-11-12-12-12-12-12-12-12-12-|
|-x-x-x-x-x-x-x-x--x--x--x--x--x--x--x--x--x--x--x--x--x--x--x--x-|
|-7-7-7-7-7-7-7-7--9--9--9--9--9--9--9--9-10-10-10-10-10-10-10-10-|
|-----------------------------------------------------------------|

|-------------------------|
|-------------------------|
|-12-12-12-12-12-12-12-12-|
|--x--x--x--x--x--x--x--x-|
|-10-10-10-10-10-10-10-10-|
|-------------------------|

|-------------------------------------------------------------------------|
|-------------------------------------------------------------------------|
|-9-9-9-9-9-9-9-9-9-9-9-9-9-9-9-9---7---------------7-7-7-7-7-7-7-7-------|
|-x-x-x-x-x-x-x-x-x-x-x-x-x-x-x-x---7---------------7-7-7-7-7-7-7-7-------|
|-7-7-7-7-7-7-7-7-7-7-7-7-7-7-7-7---5---------------5-5-5-5-5-5-5-5-------|
|-------------------------------------0-0-0-0-0-0-------------------------|
. . . . . .
Outro
|----------------------------------------------------|
|----------------------------------------------------|
|---------------5--5-5--5-5-5-7--7-7--7-7-7----------|
|-2--2-2--2-2-2-5--5-5--5-5-5-7--7-7--7-7-7-5-4-7-4-5|
|-2--2-2--2-2-2-3--3-3--3-3-3-5--5-5--5-5-5-5-4-7-4-5|
|-0--0-0--0-0-0-----------------------------3-2-5-2-3|


Guitar 2 Part's

(The drugs begin to peak)
e|-------------|x2
b|-------------|
g|-9----5----7-|
d|-9----5----7-|
a|-7----3----5-|
e|-------------|

(But sedation changes)
|------------------|
|------------------|
|-5----7----9----7-|
|-5----7----9----7-|
|-3----5----7----5-|
|------------------|

|----------------------------------------|
|----------------------------------------|
|-5----7-----------------7-7-7-7-7-7-7-7-|
|-5----7-2-2-2-2-2-2-2-2-7-7-7-7-7-7-7-7-|
|-3----5-2-2-2-2-2-2-2-2-5-5-5-5-5-5-5-5-|
|--------0-0-0-0-0-0-0-0-----------------|
         . . . . . . . . 

Pre-chorus
|----------------------------------------------------|
|----------------------------------------------------|
|---------------5--5-5--5-5-5-7--7-7--7-7-7----------|
|-2--2-2--2-2-2-5--5-5--5-5-5-7--7-7--7-7-7-5-4-7-4-5|
|-2--2-2--2-2-2-3--3-3--3-3-3-5--5-5--5-5-5-5-4-7-4-5|
|-0--0-0--0-0-0-----------------------------3-2-5-2-3|

|-------------------------------------------------------|
|-------------------------------------------------------|
|---------------5--5-5--5-5-5-7--7-7--7-7-7-------------|
|-2--2-2--2-2-2-5--5-5--5-5-5-7--7-7--7-7-7-5-5-4-5-4---|
|-2--2-2--2-2-2-3--3-3--3-3-3-5--5-5--5-5-5-5-5-4-5-4---|
|-0--0-0--0-0-0-----------------------------3-3-2-3-2p0-|

Chorus
|---------------------------------|x3
|---------------------------------|
|-5-5-5-5-7-7-7-7-9-9-9-9-9-9-9-9-|
|-5-5-5-5-7-7-7-7-9-9-9-9-9-9-9-9-|
|-3-3-3-3-5-5-5-5-7-7-7-7-7-7-7-7-|
|---------------------------------|

|---------------------------------------------------|
|---------------------------------------------------|
|-5-5-5-5-5-5-5-5-7-7-7-7-7-7-7-7-7-7-7-7-7-7-7-7-7-|
|-5-5-5-5-5-5-5-5-7-7-7-7-7-7-7-7-7-7-7-7-7-7-7-7-7-|
|-3-3-3-3-3-3-3-3-5-5-5-5-5-5-5-5-5-5-5-5-5-5-5-5-5-|
|-------------------.-.-.-.-.-.-.-.-----------------|

|----------------------------------------------------|
|----------------------------------------------------|
|---------------5--5-5--5-5-5-7--7-7--7-7-7----------|
|-2--2-2--2-2-2-5--5-5--5-5-5-7--7-7--7-7-7-5-4-7-4-5|
|-2--2-2--2-2-2-3--3-3--3-3-3-5--5-5--5-5-5-5-4-7-4-5|
|-0--0-0--0-0-0-----------------------------3-2-5-2-3|

|-------------------------------------------------------|
|-------------------------------------------------------|
|---------------5--5-5--5-5-5-7--7-7--7-7-7-------------|
|-2--2-2--2-2-2-5--5-5--5-5-5-7--7-7--7-7-7-5-5-4-5-4---|
|-2--2-2--2-2-2-3--3-3--3-3-3-5--5-5--5-5-5-5-5-4-5-4---|
|-0--0-0--0-0-0-----------------------------3-3-2-3-2p0-|

Chorus
|---------------------------------|x3
|---------------------------------|
|-5-5-5-5-7-7-7-7-9-9-9-9-9-9-9-9-|
|-5-5-5-5-7-7-7-7-9-9-9-9-9-9-9-9-|
|-3-3-3-3-5-5-5-5-7-7-7-7-7-7-7-7-|
|---------------------------------|

|---------------------------------------------------|
|---------------------------------------------------|
|-5-5-5-5-5-5-5-5-7-7-7-7-7-7-7-7-7-7-7-7-7-7-7-7-7-|
|-5-5-5-5-5-5-5-5-7-7-7-7-7-7-7-7-7-7-7-7-7-7-7-7-7-|
|-3-3-3-3-3-3-3-3-5-5-5-5-5-5-5-5-5-5-5-5-5-5-5-5-5-|
|-------------------.-.-.-.-.-.-.-.-----------------|

Bridge
|----------------------------------------------------|
|----------------------------------------------------|
|-----------44444444--99999999--77777777--55555555-x-|
|-55555555--44444444--99999999--77777777--55555555-x-|
|-55555555--22222222--77777777--55555555--33333333-x-|
|-33333333-------------------------------------------|

|----------------------------------------------------|
|----------------------------------------------------|
|-----------44444444-975--------------------------|
|-55555555--44444444-975--------------------------|
|-55555555--22222222-753--------------------------|
|-33333333-------------------------------------------|

|-------------|x2
|-------------|
|-9----5----7-|
|-9----5----7-|
|-7----3----5-|
|-------------|

|------------------|
|------------------|
|-5----7----9----7-|
|-5----7----9----7-|x3
|-3----5----7----5-|
|------------------|

|----------------------------------------|
|----------------------------------------|
|-5----7-----------------7-7-7-7-7-7-7-7-|
|-5----7-2-2-2-2-2-2-2-2-7-7-7-7-7-7-7-7-|
|-3----5-2-2-2-2-2-2-2-2-5-5-5-5-5-5-5-5-|
|--------0-0-0-0-0-0-0-0-----------------|
         . . . . . . . . . . . . . . . .

Chorus
|---------------------------------|x3
|---------------------------------|
|-5-5-5-5-7-7-7-7-9-9-9-9-9-9-9-9-|
|-5-5-5-5-7-7-7-7-9-9-9-9-9-9-9-9-|
|-3-3-3-3-5-5-5-5-7-7-7-7-7-7-7-7-|
|---------------------------------|

|---------------------------------------------------|
|---------------------------------------------------|
|-5-5-5-5-5-5-5-5-7-7-7-7-7-7-7-7-7-7-7-7-7-7-7-7-7-|
|-5-5-5-5-5-5-5-5-7-7-7-7-7-7-7-7-7-7-7-7-7-7-7-7-7-|
|-3-3-3-3-3-3-3-3-5-5-5-5-5-5-5-5-5-5-5-5-5-5-5-5-5-|
|-------------------.-.-.-.-.-.-.-.-----------------|

Outro
|----------------------------------------------------|
|----------------------------------------------------|
|---------------5--5-5--5-5-5-7--7-7--7-7-7----------|
|-2--2-2--2-2-2-5--5-5--5-5-5-7--7-7--7-7-7-5-4-7-4-5|
|-2--2-2--2-2-2-3--3-3--3-3-3-5--5-5--5-5-5-5-4-7-4-5|
|-0--0-0--0-0-0-----------------------------3-2-5-2-3|

ĂŽnscrie-te la newsletter


Like us on Facebook