Smile In Your Sleep Intro Tab - Silverstein




Ok. To begin with, this intro is all tapped. Anything below the 12th fret is with
the left hand, 12th or above is right hand...It is actually at a pretty fast tempo.
I believe the guitarist is playing eighth notes at a tempo of 180 bpm. Anyways, here's
the tab. It helps on the left hand if you tap the A string with your index finger and
the D string with your ring finger.
Left Hand Tap-L
Right Hand Tap-R

  L L R  L L R  L R    L L R  L L R  L R  
E--------------------|---------------------|
B--------------------|---------------------|
G--------------------|--------------------*|this repeats one time only
D---9------9-17---16-|---9-19---9-16---17-*|
A-7---15-7------7----|-7------7------7-----|
E--------------------|---------------------|

  L L R  L L R  L R    L L R  L L R  L R
E--------------------|--------------------|
B--------------------|--------------------|
G--------------------|--------------------|
D---5-12---5-14---12-|---5-16---5-12---14-|
A-3------3------3----|-3------3------3----|
E--------------------|--------------------|

  L L R  L L R  L R    L L R  L L R  L R 
E--------------------|--------------------|
B--------------------|--------------------|
G--------------------|--------------------|
D---7-17---7-16---14-|---7-12---7-14---16-|
A-5------5------5----|-5------5------5----|
E--------------------|--------------------|

i also will put the the small verse part after the bridge. It varies slightly from the intro/normal verse.

  L L R  L L R  L R    L L R  L L R  L R  
E--------------------|--------------------|
B--------------------|--------------------|
G--------------------|--------------------|
D---9-17---9-17---17-|---9-19---9-19---19-|
A-7------7------7----|-7------7------7----|
E--------------------|--------------------|

  L L R  L L R  L R    L L R  L L R  L R  
E--------------------|--------------------|
B--------------------|--------------------|
G--------------------|--------------------|
D---9-21---9-21---21-|---9-21---9-21---21-|
A-7------7------7----|-7------7------7----|
E--------------------|--------------------|

  L L R  L L R  L R    L L R  L L R  L R
E--------------------|--------------------|
B--------------------|--------------------|
G--------------------|--------------------|
D---5-17---5-17---17-|---5-16---5-16---16-|
A-3------3------3----|-3------3------3----|
E--------------------|--------------------|

L L R  L L R  L R    L L R  L L R  L R 
E--------------------|--------------------|
B--------------------|--------------------|
G--------------------|--------------------|
D---7-17---7-17---17-|---7-14---7-14---14-|
A-5------5------5----|-5------5------5----|
E--------------------|--------------------|

Well, that's it. Hope you guys have as much fun playing it as i do. I am so glad I
could finally figure this out. If there are any questions about it or any tabs of
the same kind of music, my email is gtr_79@yahoo.com. Enjoy!






ĂŽnscrie-te la newsletter


Join the ranks ! LIKE us on Facebook