Sound Of The Sun (ver2) Tab - Silverstein




Silverstein Sound of the Sun tab----By Jules Parete

Drop C tuning (I know that Silverstein never uses drop C tuning, but theres a new 
so maybe there is also new tunings just give it a try it sounds right)


You will have to figure out the strumming yourself in some spots but it wont be too hard

Josh Bradford
D|--------------------------------------------------------------|
A|--------------------------------------------------------------|
F|--------------------------------------------------------------|
C|---5~-1~-3~---------------------------------------------------|
G|---5~-1~-3~---------------------------------------------------|
C|---5~-1~-3~---------------------------------------------------|

                                                                Intro
Neil Boshart                                                     X2
D|---------------------------------------------------------------|
A|----------------------------18-10------------------------------|
F|-15-15-14-15-17-15-14-15-17------------------------------------|
C|---------------------------------------------------------------|
G|---------------------------------------------------------------|
C|---------------------------------------------------------------|

                               2nd part
Josh and Neil
D|-----------------------------------------------------------------|
A|-----------------------------------------------------------------|
F|-----------------------------------------------------------------|
C|--333333--1010--33--5555555---------------111111-----------------|
G|--333333--1010--33--5555555---------------111111-----------------|
C|--333333--1010--33--5555555-8-7-5-7-5-3-1-111111--10-8-7-8-7-3-5-|
        ******                          ******                              ******
Josh and Neil
D|---------------------------------------------------------------|
A|---------------------------------------------------------------|
F|--------------------55555-88888/-10----------------------------|
C|-555555-------------55555-88888/-10----------------------------|
G|-555555-------------33333-66666/-8-----------------------------|
C|-555555-8-7-5-7-5-3--------------------------------------------|
   ******

verse

Neil
D|------------------------------------------------------------------|
A|-----------------------------------------1818181818111111111 x2--|
F|-1515-1414-1515-1717-1515-1414-15/17-X2---------------------------|
C|------------------------------------------------------------------|
G|------------------------------------------------------------------|
C|------------------------------------------------------------------|

Josh
D|---------------------------------------------------------------------|let
A|---------------------------------------------------------------------|ring
F|---------------------------------------------------------------------|
C|--3--1--5--5---------------------------------------------------------|
G|--3--1--5--5---------------------------------------------------------|
C|--3--1--5--5---------------------------------------------------------|

Pre-chorus
Josh and Neil
D|---------------------------------------------------------------|
A|--------------101010---------101010----------------------------|
F|--------------101010---------101010----------------------------|
C|-121212---888----------88888--------X4-------------------------|
G|-121212---888----------88888-----------------------------------|
C|-101010---666----------88888-----------------------------------|
   ******   ***          *****
Josh and Neil
D|-------------------------------------------------------------------|
A|----------------------------101010---------------------------------|
F|-------------10-8-7---------101010---------------------------------|
C|--12/13-128----------8888-----------------------------------------|
G|----------------------8888-----------------------------------------|
C|----------------------8888-----------------------------------------|
                        ****
Chorus
Josh and Neil
D|---------------------------------------------------------------|
A|---------------------------------------------------------------|
F|-1515141415151717151514141515-10101010-151515151515------------|
C|---------------------------------------------------------------|
G|-1313121213131515131312121313-8888888-131313131313-------------|
C|---------------------------------------------------------------|

Josh and Neil
D|---------------------------------------------------------------|
A|---------------------------------------------------------------|
F|-888888-151515151515-101010--15-14--14141414141414-------------|
C|---------------------------------------------------------------|
G|-666666-131313131313--888888-13-12-12121212121212--------------|
C|---------------------------------------------------------------|

Josh and Neil
D|---------------------------------------------------------------|
A|---------------------------------------------------------------|
F|-1515141415151717151514141515-10101010-151515151515------------|
C|---------------------------------------------------------------|
G|-1313121213131515131312121313-8888888-131313131313-------------|
C|---------------------------------------------------------------|

Josh and Neil
D|---------------------------------------------------------------|
A|---------------------------------------------------------------|
F|-888888-151515151515-101010--15-14--14141414141414-------------|
C|---------------------------------------------------------------|
G|-666666-131313131313--888888-13-12-12121212121212--------------|
C|---------------------------------------------------------------|

Bridge
Josh and Neil
D|---------------------------------------------------------------|
A|---------------------------------------------------------------|
F|---------------------------------------------------------------|
C|----------555555---------------111111--------------------------|
G|-1212-33--555555---------------111111--------------------------|
C|-1010-33--555555-8-7-5-7-5-3-1-111111-10-8-7-8-7-3-5-----------|
            ******               ******


Josh and Neil
D|---------------------------------------------------------------|
A|---------------------------------------------------------------|
F|--------------------55555-88888/-10----------------------------|
C|-555555-------------55555-88888/-10----------------------------|
G|-555555-------------33333-66666/-8-----------------------------|
C|-555555-8-7-5-7-5-3--------------------------------------------|
   ******
Verse
Neil
D|------------------------------------------------------------------|
A|-----------------------------------------1818181818111111111 x2--|
F|-1515-1414-1515-1717-1515-1414-15/17-X2---------------------------|
C|------------------------------------------------------------------|
G|------------------------------------------------------------------|
C|------------------------------------------------------------------|

Josh
D|------------------------------------------------------------------|
A|------------------------------------------------------------------|
F|------------------------------------------------------------------|let
C|-3--1--5--5-------------------------------------------------------|ring
G|-3--1--5--5-------------------------------------------------------|
C|-3-1---5--5-------------------------------------------------------|


Pre-chorus
Josh and Neil
D|---------------------------------------------------------------|
A|--------------101010---------101010----------------------------|
F|--------------101010---------101010----------------------------|
C|-121212---888----------88888--------X4-------------------------|
G|-121212---888----------88888-----------------------------------|
C|-101010---666----------88888-----------------------------------|
   ******   ***          *****
Josh and Neil
D|-------------------------------------------------------------------|
A|----------------------------101010---------------------------------|
F|-------------10-8-7---------101010---------------------------------|
C|--12/13-128----------8888-----------------------------------------|
G|----------------------8888-----------------------------------------|
C|----------------------8888-----------------------------------------|
                        ****
Chorus

Josh and Neil
D|---------------------------------------------------------------|
A|---------------------------------------------------------------|
F|-1515141415151717151514141515-10101010-151515151515------------|
C|---------------------------------------------------------------|
G|-1313121213131515131312121313-8888888-131313131313-------------|
C|---------------------------------------------------------------|

Josh and Neil
D|---------------------------------------------------------------|
A|---------------------------------------------------------------|
F|-888888-151515151515-101010--15-14--14141414141414-------------|
C|---------------------------------------------------------------|
G|-666666-131313131313--888888-13-12-12121212121212--------------|
C|---------------------------------------------------------------|

Josh and Neil
D|---------------------------------------------------------------|
A|---------------------------------------------------------------|
F|-1515141415151717151514141515-10101010-151515151515------------|
C|---------------------------------------------------------------|
G|-1313121213131515131312121313-8888888-131313131313-------------|
C|---------------------------------------------------------------|

Josh and Neil
D|---------------------------------------------------------------|
A|---------------------------------------------------------------|
F|-888888-151515151515-101010--15-14--14141414141414-------------|
C|---------------------------------------------------------------|
G|-666666-131313131313--888888-13-12-12121212121212--------------|
C|---------------------------------------------------------------|

Intro
Josh Bradford
D|--------------------------------------------------------------|
A|--------------------------------------------------------------|
F|--------------------------------------------------------------|
C|---5~-1~-3~---------------------------------------------------|
G|---5~-1~-3~---------------------------------------------------|
C|---5~-1~-3~---------------------------------------------------|

                                                                Intro
Neil Boshart                                                     X2
D|---------------------------------------------------------------|
A|----------------------------18-10------------------------------|
F|-15-15-14-15-17-15-14-15-17------------------------------------|
C|---------------------------------------------------------------|
G|---------------------------------------------------------------|
C|---------------------------------------------------------------|

Breakdown
Josh and Neil
D|---------------------------------------------------------------|
A|---------------------------------------------------------------|
F|---------------------------------------------------------------|
C|---333333333333------------------------------------------------|
G|---333333333333-3-1-3-5-3-1-0-1--------------------------------|
C|---333333333333------------------------------------------------|
     ************

Josh and Neil
D|---------------------------------------------------------------|
A|---------------------------------------------------------------|
F|---------------------------------------------------------------|
C|-5555----------------1111----------------5555------------------|
G|-5555----------------1111----------------5555------------------|
C| 5555--8-7-5-7-5-3/5-1111-10-8-7-8-7-3/5-5555-8-7-5-7-5-3/5----|
   ** *                ** *                ** *

Josh and Neil
D|---------------------------------------------------------------|
A|---------------------------------------------------------------|
F|---------------------------------------------------------------|
C|---------------------------------------------------------------|
G|-1111---3333/--5555----------------1111------------------------|
C|-1111---3333/--5555--8-7-5-7-5-3/5-1111-10-8-7-8-7-3/5---------|
   ** *   ** *   ** *                ** *
Josh and Neil
D|---------------------------------------------------------------|
A|---------------------------------------------------------------|
F|---------------------------------------------------------------|
C|---------------------------------------------------------------|
G|-5555----------------3333--555555------------------------------|
C|-5555-8-7-5-7-5-3/5--3333--555555------------------------------|
   ** *                ****  ******
Pre-chorus
Josh and Neil
D|-------------------------------------------------------------------|
A|----------------------------101010---------------------------------|
F|-------------10-8-7---------101010---------------------------------|
C|--12/13-128----------8888-----------------------------------------|
G|----------------------8888-----------------------------------------|
C|----------------------8888-----------------------------------------|
                        ****
Chorus
Josh and Neil
D|---------------------------------------------------------------|
A|---------------------------------------------------------------|
F|-1515141415151717151514141515-10101010-151515151515------------|
C|---------------------------------------------------------------|
G|-1313121213131515131312121313-8888888-131313131313-------------|
C|---------------------------------------------------------------|

Josh and Neil
D|---------------------------------------------------------------|
A|---------------------------------------------------------------|
F|-888888-151515151515-101010--15-14--14141414141414-------------|
C|---------------------------------------------------------------|
G|-666666-131313131313--888888-13-12-12121212121212--------------|
C|---------------------------------------------------------------|

Josh and Neil
D|---------------------------------------------------------------|
A|---------------------------------------------------------------|
F|-1515141415151717151514141515-10101010-151515151515------------|
C|---------------------------------------------------------------|
G|-1313121213131515131312121313-8888888-131313131313-------------|
C|---------------------------------------------------------------|

Josh and Neil
D|---------------------------------------------------------------|
A|---------------------------------------------------------------|
F|-888888-151515151515-101010--15-14--14141414141414-------------|
C|---------------------------------------------------------------|
G|-666666-131313131313--888888-13-12-12121212121212--------------|
C|---------------------------------------------------------------|

Outro
Josh and Neil
D|---------------------------------------------------------------|
A|---------------------------------------------------------------|
F|---------------------------------------------------------------|
C|-101010-333-5--------------------------------------------------|
G|-101010-333-5--------------------------------------------------|
C|-101010-333-5--------------------------------------------------|

Thats it
It was my very first tab and if you actually play it you will see its played in drop c 
go plug in and PEACE OUT

ĂŽnscrie-te la newsletter


Join the ranks ! LIKE us on Facebook