Sound Of The Sun Bass Tab - Silverstein




+++++++++++++++++++++++++++++++++
| Silverstein- Sound Of The Sun |
+++++++++++++++++++++++++++++++++

Tuning: Drop C# (C#ADG)

First of all, C# should sound like this:

G |--------6-|-------2-|
D |-----11---|-----7---|
A |---4------|---0-----|
C#|-0--------|-8-------|
    ^ ^ ^^ ^   ^ ^ ^ ^
       C#         A

Just so you know, if you didnt already 
So heres the song Dropped C#

Intro
"You've cast these scars across my face..."
1.
G |---------------------------------------------------|
D |---------------------------------------------------|
A |-------------------------------------------1-1-----|
C#|-4~----0~----2~--------4~----0~----2222222-----2-2-|

2.
G |--------------------------------------------------------------------------------------|
D |------------------------------------------------------------------------------------1-|
A |---------------------------------1-----------------------------------1-1111-1-4-4444--|
C#|-4-4444-4-7--6-4-6--4-2-0-0000-0----7-6-7--6-2-4-4444-4-7-6-4-6--4-2------------------|

Verse
"And I dont know whats wrong with me..."
3.
G |-----------------------------------------------------|
D |-3~--------3-----------------------------------------|
A |-------------4~--------4-----------------------------|
C#|-------------------------7~--------7-6~----6-2~------|

"And now Im standing here alone..."
4.
G |-------------------------------------------------------------------------|
D |-------------------------------------------------------------------------|
A |-------------------------------------------------------------------------|
C#|-44444444-44444444-00000000-00000000-77777777-77777777-66666666-22222222-|

Pre-Chorus
"Maybe I just have to let it go..."
5.
G |-----------------------------|
D |-----------------------------|
A |-1~--------------------------|
C#|-----------00000000-00000000-|

Chorus
"Make it up, make it up when you're not around..."
6.
G |-------------------------------------------------------------------------|
D |-------------------------------------------------------------------------|
A |-------------------------------------11111111-11111111-------------------|
C#|-44444444-44444444-77777777-77777777-------------------00000000-11111111-|

7.
G |------------------------------------------------------------------------|
D |------------------------------------------------------------------------|
A |-------------------------------------11111111-11111111----------1-1-----|
C#|-44444444-44444444-77777777-77777777-------------------00000000-----2-2-|

Outro
8.
G |--------------------------------------------------------------------------------------|
D |------------------------------------------------------------------------------------1-|
A |---------------------------------1-----------------------------------1-1111-1-4-4444--|
C#|-4-4444-4-7--6-4-6--4-2-0-0000-0----7-6-7--6-2-4-4444-4-7-6-4-6--4-2------------------|

Verse
"And nothing's ever as it seems..."
9.
G |-----------------------------------------------------|
D |-3~--------3-----------------------------------------|
A |-------------4~--------4-----------------------------|
C#|-------------------------7~--------7-6~----6-2~------|

"And all the trauma takes its toll..."
10.
G |-------------------------------------------------------------------------|
D |-------------------------------------------------------------------------|
A |-------------------------------------------------------------------------|
C#|-44444444-44444444-00000000-00000000-77777777-77777777-66666666-22222222-|

Pre-Chorus
"Maybe you just have to let me know..."
11.
G |-----------------------------|
D |-----------------------------|
A |-1~--------------------------|
C#|-----------00000000-00000000-|

Chorus
"Make it up, make it up when you're not around..."
12.
G |-------------------------------------------------------------------------|
D |-------------------------------------------------------------------------|
A |-------------------------------------11111111-11111111-------------------|--x2
C#|-44444444-44444444-77777777-77777777-------------------00000000-11111111-|

Outro
"You've cast these scars across my face..."
13.
G |----------------------------------------------|
D |----------------------------------------------|
A |----------------------------------------------|
C#|-4~----0~----2~--------4~----0~----222222222x-|

Bridge
14.
G |-------------------------------------------------------------------------------------|
D |-------------------------------------------------------------------------------------|
A |-------------------------------1--------------------------------------11-11~---------|
C#|-44-44~--7-6-4-6--4-2-4-00-00~---7-6-7--6-2-4--44-44~--7-6-4-6--4-2-4--------00-00-2-|

15.
G |-----------------------------------------------------------------------------------------|
D |-----------------------------------------------------------------------------------------|
A |-------------------------------1--------------------------------------11-11~-------------|
C#|-44-44~--7-6-4-6--4-2-4-00-00~---7-6-7--6-2-4--44-44~--7-6-4-6--4-2-4--------0-0-0-2-2-2-|

Pre-Chorus
"Maybe I just have to let it go..."
16.
G |-----------------------------------------------|
D |-----------------------------------------------|
A |-1~--------------------------------------------|
C#|-----------00000000-00000000-00000000-00000000-|

Chorus
"Make it up, make it up when you're not around..."
17.
G |-------------------------------------------------------------------------|
D |-------------------------------------------------------------------------|
A |-------------------------------------11111111-11111111-------------------|
C#|-44444444-44444444-77777777-77777777-------------------00000000-11111111-|

18.
G |--------------------------------------------------------------------------|
D |--------------------------------------------------------------------------|
A |-------------------------------------11111111-11111111----------1-1-------|
C#|-44444444-44444444-77777777-77777777-------------------00000000-----2-2-4-|

________________________________

Lyrics:

You've cast these scars across my face
You can't bring me down.
You think I'll never be the same.

And I don't know what's wrong with me,
I wanted to be all the things you need,
All the things you need.

And now I'm standing here alone,
I'm waiting for it all to come and go,
All to come and go.

Maybe I just have to let it go...

Make it up, make it up when you're not around.
Break it up, break it up, can't you hear the sound of the sun
Rising from the ground
Make it up, make it up when you're not around.
Break it up, break it up, do you always wanna be the one
Running from yourself

And nothing's ever as it seems
When all your dreams exist in memories,
Exist in memories.

And all the trauma takes its toll.
I don't remember all our common goals,
All our common goals.

Maybe you just have to let me know...

It's not you I'm afraid of
But I'm not scared of myself
You'll lie with or without me
You'll never need my help

+++++++++++++++++++++++++++++++++
| RaiLeff                       |
| Underground__Dora@Hotmail.Com |
+++++++++++++++++++++++++++++++++

ĂŽnscrie-te la newsletter


Join the ranks ! LIKE us on Facebook