Summers Stellar Gaze Bass Tab - Silverstein




Tuning: Drop D

-------------------------
Updated: 5/6/07
I changed the whole song.
-------------------------

Intro
|---------------------------------------|
|---------------------------------------|
|-4~---------------4--5--4--5--4--5--4~-|
|---------------------------------------|

Verse
|-----------------------------------|
|-----------------------------------|
|-----------------------------------|
|-0000000000000000--5--4--5--4--555-|x3

|---------------------------|
|---------------------------|
|---------------------------|
|-0000000000000000-5--4--0~-|

Chorus
|-----------------|
|-----------------|
|-----------------|
|-555444-0-00-000-|
                      x4
|-----------------|
|-----------------|
|--------0-00-000-|
|-555444----------|

Verse
|----------------|
|----------------|
|----------------|
|-5554-5554-5555-|x7

|----------------|
|----------------|
|----------------|
|-5554-2~--------|

Chorus
|-----------------|
|-----------------|
|-----------------|
|-555444-0-00-000-|
                      x4
|-----------------|
|-----------------|
|--------0-00-000-|
|-555444----------|

Verse
|-----------------------------------|
|-----------------------------------|
|-----------------------------------|
|-0000000000000000--5--4--5--4--555-|x4

Pre-Bridge
|----------------------------------|
|----------------------------------|
|----------------------------------|
|-00000000000000000000000000000000-|x2

Bridge
|------------------|
|------------------|
|------------------|
|-5554--5554--5555-|x7

|--------------|
|--------------|
|--------------|
|-5554--2~-----|

Outro
|-----------|
|-----------|
|-----------|
|-00x--000x-|

ĂŽnscrie-te la newsletter


Join the ranks ! LIKE us on Facebook