Three Hours Back Intro (ver2) Tab - Silverstein




-------------------------------------------------------------------------------
    Three Hours Back- Silverstein
-------------------------------------------------------------------------------
Tabbed by: Cullan S.
Email: releitnk_x@yahoo.com
Myspace Me: www.myspace.com/imawhiteguy
Tuning:Drop D

Intro

Guitar 1
e|---------------------------0-----0-----------------|
B|------2--------2-------3-----3-----3---2p0---0-----|
G|----2--2---2-----2-------2-----2-----2-----2-------|
D|-2h4----4p2--2-----2p0-----------------------------|
A|---------------------------------------------------|
D|---------------------------------------------------|

e|---------------------------------------------------|
B|------2---------2------0~--------------------------|
G|----2--2----2-----2----2~--(2)---(2)---(2)---------|
D|-2h4----4p2---2-----2--1~----(1)---(1)-------------|
A|-------------------------(faded in the backround)--|
D|---------------------------------------------------|

-end

ĂŽnscrie-te la newsletter


Join the ranks ! LIKE us on Facebook