Three Hours Back Tab - Silverstein




three hours back - silverstein


drop d

intro



p= pull off
h=hammer on
r= let ring
X-play strings totally muted

GUITAR 1

e|---------------------------0-----0-----------------|
B|------2--------2-------3-----3-----3---2p0---0-----|
G|----2--2---2-----2-------2-----2-----2-----2-------|
D|-2h4----4p2--2-----2p0-----------------------------|
A|---------------------------------------------------|
D|---------------------------------------------------|

e|---------------------------------------------------|
B|-----2---------2-----------------------------------|
G|----2-2------2--2-----2-1-------2-1----------------|
D|-2h4------4p2-2--2--------2-0-2-0---2-0r-----------|
A|---------------------------------------------------|
D|---------------------------------------------------|


distorted part
this part is sort of hard to hear, it might not be right
if you have corrections tell me in the comments. 
this is also  the chorus.
e|---------------------------------------------------|
B|--------------------------7------------------------|4x
G|--6h7p6----6h7p6----6h7p6--------------------------|
D|-------7-----------------0------6h7p6-----6h7s9s7--|
A|----------------9----------------------7-----------|
D|---------------------------------------------------|


verse
     4x           4x          4x                      2x
e|------------][----------][------------][----------------------------------]
B|------------][----------][------------][----------------------------------]
G|9--9--11-11-][--6-6-7-7-][9--9--11-11-][-7-7-7-7-7-7-7-7--6-6-6-6-6-6-6-6-]
D|11-11-11-11-][--7-7-7-7-][11-11-11-11-][-7-7-7-7-7-7-7-7--7-7-7-7-7-7-7-7-]
A|9--9--9--9--][--5-5-5-5-][9--9--9---9-][-5-5-5-5-5-5-5-5--5-5-5-5-5-5-5-5-]
D|------------][----------][------------][----------------------------------]


pre chorus

     4x                         2x
e----------------][-----------------------------------]
B----------------][-----------------------------------]
G-----------13-13][--7-7-7-7-7-7-7-7--6-6-6-6-6-6-6-6-]
D--11-X-11-------][--7-7-7-7-7-7-7-7--7-7-7-7-7-7-7-7-]
A--12-X-12--12-12][--5-5-5-5-5-5-5-5--5-5-5-5-5-5-5-5-]
D----------------][-----------------------------------]



chorus

e|---------------------------------------------------|
B|--------------------------7------------------------|4x
G|--6h7p6----6h7p6----6h7p6--------------------------|
D|-------7-----------------0------6h7p6-----6h7s9s7--|
A|----------------9----------------------7-----------|
D|---------------------------------------------------|




i don't think this part is right, theres a second string played as well, but i havent
 figured it out yet. il correct it later

                 
                              
e-----------------
B-----------------
G-9-9s4-4s9-9s11--
D-----------------
A-----------------
D-----------------



 then just bass. then play this
                                        
 pickslide   play this as 
    v                many times needed          also add in this a few times
e|   [--------]                                           [----|
B|   [-10-9---]                                           [-12-|
G    [-11-11--]                                           [-11-|
D|   [--------]                                           [----|
A|   [--------]                                           [----|
D|   [--------]                                           [----|




then


e|-----------|
B|--7--9--10-|
G|--7--9--11-|
D|-----------|
A|-----------|
D|-----------|


end on

e|---|
B|---|
G|-9-|
D|---|
A|---|
D|---|

order for guitar 1

intro
verse
chorus
bridge
chorus
end

GUITAR 2


while still part of the intro

e|----|
B|----|
G|-0r-|
D|-1r-|
A|-2r-|
D|----|
  

verse(same as chorus)
                2x
e|------------------------------------------|
B|------------------------------------------|
G|------------------------------------------|
D|-4-4--2-2-0-0-0-0-0-0-0-0-0-0-0-0-0-0-0-0-|
A|-4-4--2-2-0-0-0-0-0-0-0-0-0-0-0-0-0-0-0-0-|
D|-4-4--2-2-0-0-0-0-0-0-0-0-0-0-0-0-0-0-0-0-|

     each chord played 8 times except for the d, which is played 16
e|-------|
B|-------|
G|-------|
D|-4-2-0-|
A|-4-2-0-|
D|-4-2-0-|

you could play the same verse and pre chorus as guitar 1 if you want, im not gonna put it here

                  chorus

                  2x
e|------------------------------------------|
B|------------------------------------------|
G|------------------------------------------|
D|-4-4--2-2-0-0-0-0-0-0-0-0-0-0-0-0-0-0-0-0-|
A|-4-4--2-2-0-0-0-0-0-0-0-0-0-0-0-0-0-0-0-0-|
D|-4-4--2-2-0-0-0-0-0-0-0-0-0-0-0-0-0-0-0-0-|

     each chord played 8 times except for the d, which is played 16
e|-------|
B|-------|
G|-------|
D|-4-2-0-|
A|-4-2-0-|
D|-4-2-0-|



bridge

8x

each chord strummed around 16 times, 

e-----|
B-----|
G-----|
D-0-2-|
A-0-2-|
D-0-2-|


muted
e-----------------------------------------------|
B-----------------------------------------------|
G-----------------------------------------------|
D-4-4-4-4-4-4-4-4-4-4-4--0--0-0-0-0-0-0-0-0-0-0-|
A-4-4-4-4-4-4-4-4-4-4-4--0--0-0-0-0-0-0-0-0-0-0-|
D-4-4-4-4-4-4-4-4-4-4-4--0--0-0-0-0-0-0-0-0-0-0-|

play this twice, except second time play the 0 only 6 times
                                             0
                                             0

end on
e----|
B----|
G----|
D-0r-|
A-0r-|
D-0r-|




order

intro
verse(optional, play what guitar 1 plays)
pre-chorus(optional, play what guitar 1 plays)
chorus
bridge
chorus


ĂŽnscrie-te la newsletter


Join the ranks ! LIKE us on Facebook