True Romance (ver2) Tab - Silverstein




-------------------------------------------------------------------------------
     True Romance - Silverstein
-------------------------------------------------------------------------------
Tabbed by: Hao
Email: flash121000000@yahoo.com


i got the intro from aldenschulte


Tuning: EBGDAE

Intro

E|---------------------------------------------|
B|--7---6/7/9--7---6/7/9--11--12--11---9h11--9-|
G|---------------------------------------------|x2
D|---------------------------------------------|
A|--6---4/6/8--6---4/6/8---9---9---8---8-----8-|
E|---------------------------------------------|

Verse 1

e|---------------------------------------------------------------------------|
B|---------------------------------------------------------------------------|
G|---------4---3-------4----3-------6---3-------3---6------------------------|x4
D|-----6-----------6------------4-----------4--------------------------------|
A|---------------------------------------------------------------------------|
E|---------------------------------------------------------------------------|

Pre-Chorus

e|---------9------------------------6-----------------------6-------9-------9|
B|-----7-------7---9---11---9---7-------7---6---4---6---7-------7-------7----|
G|---------------------------------------------------------------------------|
D|---------------------------------------------------------------------------|
A|---------------------------------------------------------------------------|
E|---------------------------------------------------------------------------|

     |-------6-------------------|
     |---7-------7---6---4---6---|x2
     |---------------------------|
     |---------------------------|
     |---------------------------|
     |---------------------------|

Chorus (So u can fig. out the chords -> too hard 4 me)   Play before second chorus

e|------------------------------------------------|    |------------------------|
B|---7---6---2---2---0-------2-------7---6---4----|    |---4---6----------------|
G|-----------------------3------------------------|x2  |------------------------|
D|-------------------------------4----------------|    |------------------------|
A|------------------------------------------------|    |------------------------|
E|------------------------------------------------|    |------------------------|

little interlude thing

e|---------------------------------------------------------------------------|
B|---------------------------------------------------------------------------|
G|-----3-3-3--4~-----3-3-3-4---6---------------------------------------------|
D|-----3-3-3--4~-----3-3-3-4---6-x6------------------------------------------|
A|-----1-1-1--2~-----1-1-1-2---4---------------------------------------------|
E|---------------------------------------------------------------------------|

e|---------------------------------------------------------------------------|
B|---------------------------------------------------------------------------|
G|-----3-3-3--4~-----3-3-3-4---6--------6------------------------------------|x3
D|-----3-3-3--4~-----3-3-3-4---6-x6-----6-x6---------------------------------|
A|-----1-1-1--2~-----1-1-1-2---4--------4------------------------------------|
E|---------------------------------------------------------------------------|

e|---------------------------------------------------------------------------|
B|---------------------------------------------------------------------------|
G|-----3-3-3--4~-----3-3-3-4---6---------------------------------------------|
D|-----3-3-3--4~-----3-3-3-4---6-x6------------------------------------------|
A|-----1-1-1--2~-----1-1-1-2---4---------------------------------------------|
E|---------------------------------------------------------------------------|

e|---------------------------------------------------------------------------|
B|---------------------------------------------------------------------------|
G|-----3-3-3--4~-----3-3-3-4---6--------6------------------------------------|
D|-----3-3-3--4~-----3-3-3-4---6-x6-----6-x16--------------------------------|
A|-----1-1-1--2~-----1-1-1-2---4--------4------------------------------------|
E|---------------------------------------------------------------------------|


E|---------------------------------------------|
B|--7---6/7/9--7---6/7/9--11--12--11---9h11--9-|
G|---------------------------------------------|x2
D|---------------------------------------------|
A|--6---4/6/8--6---4/6/8---9---9---8---8-----8-|
E|---------------------------------------------|

End with chorus i guess.... and a guitar solo




| /  slide up
|   slide down
| h  hammer-on
| p  pull-off
| ~  vibrato
| +  harmonic
| x  Mute note
===============================================================================

ĂŽnscrie-te la newsletter


Join the ranks ! LIKE us on Facebook