True Romance Tab - Silverstein




This is my first tab i actually sent in, this song is very simple, so you guys shouldnt 
a problem with it!
thanks! -Stelios

Tuning: Standard.


Intro. (finger pick this!)
|------------------------------------------------|
|--7~--6/7/9--7~--6/7-9--11--12--11--9/11-9--7~--| x2
|------------------------------------------------|
|--4~--3/4/6--4~--3/4-6--8---9---8---6/8--6--4~--|
|------------------------------------------------|
|------------------------------------------------|
"I'm not here to judge you...I'm just here to tell you..."


Verse.
|-----4444444-----2222222----|
|-----4444444-----2222222----| x4
|-----4444444-----3333333----|
|---6-6666666---4-4444444----|
|---6-6666666---4-4444444----|
|---4-4444444---2-2222222----|
"Beautiful girl..."

Pre-Chorus.
|---6---------------6----------|---6---9---9--6---6----------|
|-7---7--9/11--9--7---7--64-6-|-7---7---7------7---6--4--6--| x2
|------------------------------|-----------------------------|
|------------------------------|-----------------------------|
|------------------------------|-----------------------------|
|------------------------------|-----------------------------|
"To a motel..."


(i will figure the rest out later, chorus is eh, and solo is EHHH!)
PLEASE RATE! im pretty sure its 99%! Thanks!

ĂŽnscrie-te la newsletter


Join the ranks ! LIKE us on Facebook