Vanity And Greed Tab - Silverstein




-------------------------------------------------------------------------------
    Vanity and greed by Silverstein
-------------------------------------------------------------------------------
Tabbed by:Nico
Email:fballplayuh54@yahoo.com

Tuning:Drop D
Intro is just feedback.   Verse
e|----------------------------------------------------------------------------------|
B|-----1-------3-------1-----1-----------repeat--------------------------------------|
G|-1-3----1--3----1--3---1-3--------------------------------------------------------|
D|------------------------------------------3-3-3-3-x-3-3-3---3-3-3-3-x-3-3-3-------|
A|------------------------------------------3-3-3-3-x-3-3-3---3-3-3-3-x-3-3-3-------|
E|------------------------------------------3-3-3-3-x-3-3-3---3-3-3-3-x-3-3-3-------|

e|---------------------------------------------------------------------------|
B|----1-------3-------1-----1---repeat-till-chorus----------------------------|
G|1-3----1--3----1--3---1-3--------------------------------------------------|
D|---------------------------------------------------------------------------|
A|---------------------------------------------------------------------------|
E|---------------------------------------------------------------------------|
chorus
e|--------------------------------------------------------------------------|
B|--------------------------------------------------------------------------|
G|--------------------------------------------------------------------------|
D|---3-x8-5-...till-"say-goodbye".3-------------------5-till-"shattered"-3--|
A|---3----5-----------------------3--till-"mend-this"-5------------------3--|
E|---3----5-----------------------3-------------------5------------------3--|

e|--------------------------------------|
B|--------------------------------------|
G|--------------------------------------|
D|-------------5------------7-----9-----|
A|-"dont-even"-5------------7-----9-----|
E|-------------5-----"try?"-7-x8--9-x8--|
repeat verse, only do the first bar, don't play the single notes a second time.
then Repeat chorus
Bridge
e|-----------------------------------------------------------|
B|-----------------------------------------------------------|
G|-----------------------------------------------------------|
D|-2.------------------------------------3--5--3--5-x8-7-----|
A|-2.--till-you-hear-Palm-mutes-stopped--3--5--3--5----7-x8--|
E|-2.------------------------------------3--5--3--5----7-----|
   pm
Repeat chorus twice.
end with
e|------------------------------------------------------|
B|------------------------------------------------------|
G|------------------------------------------------------|
D|--3---x--3-x3-------------------------------2.-x3--4--|
A|--3x4-x--3----------------------------------2.-----4--|
E|--3---x--3------do-that-4-times-finish-with-2.-----4--|
Thats it... Pretty simple.  Only thing im not sure about is that verse, its kinda hard 
hear behind the drums.  but just play with it if it doesnt sound right to you.

| /  slide up
|   slide down
| h  hammer-on
| p  pull-off
| ~  vibrato
| +  harmonic
| x  Mute note
===============================================================================

ĂŽnscrie-te la newsletter


Join the ranks ! LIKE us on Facebook