Waiting Four Years Intro (ver2) Tab - Silverstein






Song:Waitning Four Years(intro)
Artist:Silverstein
CD:Summers Steller Gaze, 18 Candels:
The Early Years
Tabbed by:fret13@columbus.rr.com
Tuning:Standard


Guitar 1
|---------------------------------|x?
|---------3---------------3-------|
|-----2-----2---2-----2-----2---2-|
|-0-0---0-----0-------------------|
|-----------------4-4---4-----4---|
|---------------------------------|
or this way
|-----------------------------------|x?
|-----------------------------------|
|---------7-----------------7-------|
|-----7-----7---7-------7-----7---7-|
|-5-5---5-----5-----4-4---4-----4---|
|-----------------------------------|

Guitar 2
|-10--10-10-10--10--10--12--14--14p12p10-|
|-10--10-10-10--10--10--10--10--10-------|
|----------------------------------------|
|----------------------------------------|
|----------------------------------------|
|----------------------------------------|
                                           x?
|--9--9--9-10--9--9---9--9--9-10--9--9-|///
|-10-10-10-10-10-10--10-10-10-10-10-10-|//
|--------------------------------------|/
|--------------------------------------|
|--------------------------------------|
|--------------------------------------|


ĂŽnscrie-te la newsletter


Like us on Facebook