Waiting Four Years Intro Tab - Silverstein




-----------------------------------------------------------------------------
             !Waiting Four Years - Silverstein!
-----------------------------------------------------------------------------
Tabbed by:rec123
Email:realkolguy@yahoo.com

Tuning: Standard


Intro          (Guitar 1)
e|---------------------------------------------------------------------------|
B|---------------------------------------------------------------------------|
G|-------------5-----------------------5-------------------------------------|
D|-------5-------5-------5-------5--------5-----5----(x10)-------------------|
A|--3-3----3----------3------2-2----2--------2-------------------------------|
E|---------------------------------------------------------------------------|
              (Guitar 2)
e|--10-(x7)-12--14---14-14-12-10---9-10-10-10-10--9-10---9-10-10-10-10--9-10-|
B|--10------10--10---10-10-10-10--10-10-10-10-10-10-10--10-10-10-10-10-10-10-|
G|---------------------------------------------------------------------------|
D|------------------^--------------------------------------------------------|
A|----------------(x4)-(Guitar-2-Starts-After-Guitar-1-Plays-His-Riff-Once)--|
E|---------------------------------------------------------------------------|

Silverstein Is An Amazing Band And This Is One Of My Favorite Songs By Them, So I 
To TAB It. This Is My First TAB So I Hope Things Are Right...Email Me With Questions Or 
I Plan On TABing The Rest Of The Song, But I Just Wanted To Post This Up For Now. Enjoy!

Ricky

ĂŽnscrie-te la newsletter


Join the ranks ! LIKE us on Facebook