When Broken Is Easily Fixed Bass Tab - Silverstein




Tuning: Drop D


|---------------------------------------------------------------|
|---------------------------------------------------------------|
|---------------------------------------------------------------|
|-0-0--0-0--3-2-0--0-0--0-0--3-2-5--3-3333-3-3333-2-2222-5-5555-|x2

|---------------------------------------------------------------|
|---------------------------------------------------------------|
|---------------------------------------------------------------|
|-0-0--0-0--2-3-2--0-0--0-0--2-3-2--0-0000-0-0000-3-3333-3-3333-|x2


|-----------------------------------|___
|-----------------------------------|   
|-1111111111111111-3333333333333333-|    
|-----------------------------------|     x3
                                         /
|------------------------------------------------------------|
|------------------------------------------------------------|
|------------------------------------------------------------|
|-0-0-0-0--0-0-0--0-0-0--0-0-0--0-0-0--0-0-0--0-0-0--0-0-0-0-|


|---------------------------|
|---------------------------|
|-1--1--1--1~----3--3--3~---|
|---------------------------|


|---------------------------------------------------------------|
|---------------------------------------------------------------|
|---------------------------------------------------------------|
|-0-0--0-0--3-2-0--0-0--0-0--3-2-5--3-3333-3-3333-2-2222-5-5555-|x2

|---------------------------------------------------------------|
|---------------------------------------------------------------|
|---------------------------------------------------------------|
|-0-0--0-0--2-3-2--0-0--0-0--2-3-2--0-0000-0-0000-3-3333-3-3333-|x2


|-----------------------------------|___
|-----------------------------------|   
|-1111111111111111-3333333333333333-|    
|-----------------------------------|     x3
                                         /
|------------------------------------------------------------|
|------------------------------------------------------------|
|------------------------------------------------------------|
|-0-0-0-0--0-0-0--0-0-0--0-0-0--0-0-0--0-0-0--0-0-0--0-0-0-0-|


|----------------------------------------|
|----------------------------------------|
|-1--1--1--1~----3--3--3~----------------|
|---------------------------0~--------0x-|


Pause.


|-------------------------------------------------|
|-------------------------------------------------|
|-------------------------------------------------|
|-00-0-00-000-00-0-00-000-55-5-55-555-33-3-33-333-|x4

|-------------------------|
|-------------------------|
|-------------------------|
|-5-5-5-5-5-5-5-5-5-5-5-5-|


|--------------------------------|
|--------------------------------|
|--------------------------------|
|-0~------2--3~-----5---3----/5x-|
                                          x4
|--------------------------------------|
|--------------------------------------|
|-------------------1-11-1-11-1-11-----|
|-0~------2--3~--------------------5---|


|-----------------------------------|
|-----------------------------------|
|-1-11-1-11-1-11-1-11-1-11-1-11-----|
|-------------------------------0~--|

ĂŽnscrie-te la newsletter


Join the ranks ! LIKE us on Facebook