Worlds Apart (ver2) Bass Tab - Silverstein




+++++++++++++++++++++++++++++
| Silverstein- Worlds Apart |
+++++++++++++++++++++++++++++

Tuning: Drop C# (C#ADG)

This song's great
Just add some rythm to it and it sounds perfect

Intro
"Lying all alone..."
1.
G |--------------------------------------------------------------|
D |--------------------------------------------------------------|
A |-4~----3~----1~----------4~----3~----1~-----------------------|
C#|-------------------7~----------------------5-5-5-5x--5-5-5-5x-|

Verse
"What do I think of dying..."
2.
G |-------------------------------------|
D |-------------------------------------|
A |-11111111----------------------------|--x2
C#|----------00000000-77777777-55555555-|

Pre-Chorus
"I dont want to be a fraud..."
3.
G |-------------------------------------------------------------------------|
D |-------------------------------------------------------------------------|
A |-------------------------------------------------------------------------|
C#|-44444444-44444444-55555555-55555555-00000000-00000000-00000000-00000000-|

4.
G |-------------------------------------------------|
D |-------------------------------------------------|
A |-------------------------------------------------|
C#|-44444444-44444444-55555555-55555555-7-7-7-7--7x-|

Chorus
"Ill follow through again this time..."
5.
G |--------------------------------------------------------------------|
D |--------------------------------------------------------------------|
A |---------------------------------1-1-1-1----------------------------|
C#|-0-0-0-0-0-0-0-0-5-5-5-5-5-5-5-5---------7-7-7-7-5-5-5-5x--5-5-5-5x-|

Verse
"You read me like a book..."
6.
G |-------------------------------------|
D |-------------------------------------|
A |-11111111----------------------------|--x2
C#|----------00000000-77777777-55555555-|

Pre-Chorus
"These old habits die so hard..."
7.
G |-------------------------------------------------------------------------|
D |-------------------------------------------------------------------------|
A |-------------------------------------------------------------------------|
C#|-44444444-44444444-55555555-55555555-00000000-00000000-00000000-00000000-|

8.
G |-------------------------------------------------|
D |-------------------------------------------------|
A |-------------------------------------------------|
C#|-44444444-44444444-55555555-55555555-7-7-7-7--7x-|

Chorus
"Ill follow through again this time..."
9.
G |-----------------------------------------------------------------|
D |-----------------------------------------------------------------|
A |---------------------------------1-1-1-1-------------------------|
C#|-0-0-0-0-0-0-0-0-5-5-5-5-5-5-5-5---------7-7-7-7-5-5-5-5-5-5-5-5-|

10.
G |--------------------------------------------------------------------|
D |--------------------------------------------------------------------|
A |---------------------------------1-1-1-1----------------------------|
C#|-0-0-0-0-0-0-0-0-5-5-5-5-5-5-5-5---------7-7-7-7-5-5-5-5x--5-5-5-5x-|

Outro
11.
G |-------|
D |-------|
A |-------|
C#|-0~----|

Bridge
12.
G |-----------------------------------------------------------------|
D |-----------------------------------------------------------------|
A |-4~--6-4x-4~-4/6~-3~--6-3x-3~-3/4-1~----1x-1~-1-3----------------|--x2
C#|--------------------------------------7-----------7~--6-7x-7~--7-|

13.
G |----------------------------------------------------|
D |----------------------------------------------------|
A |----------------------------------------------------|
C#|-5-5-5-5-5-5-5-5-5-5-5-5-5-5-5-5-5-5-5-5-5-5-5-5-5x-|

Chorus
"Ill follow through again this time..."
14.
G |-----------------------------------------------------------------|
D |-----------------------------------------------------------------|
A |---------------------------------1-1-1-1-------------------------|
C#|-0-0-0-0-0-0-0-0-5-5-5-5-5-5-5-5---------7-7-7-7-5-5-5-5-5-5-5-5-|

15.
G |------------------------------------------------------------------|
D |------------------------------------------------------------------|
A |---------------------------------1-1-1-1--------------------------|
C#|-0-0-0-0-0-0-0-0-5-5-5-5-5-5-5-5---------7-7-7-7-5-5-5-5-xxxx-5-5-|

16.
G |-----------------------------------------------------------------|
D |-----------------------------------------------------------------|
A |---------------------------------1-1-1-1-------------------------|
C#|-0-0-0-0-0-0-0-0-5-5-5-5-5-5-5-5---------7-7-7-7-5-5-5-5-5-5-5-5-|

17.
G |--------------------------------------------------------------------|
D |--------------------------------------------------------------------|
A |---------------------------------1-1-1-1----------------------------|
C#|-0-0-0-0-0-0-0-0-5-5-5-5-5-5-5-5---------7-7-7-7-5-5-5-5x--5-5-5-5x-|

Outro
18.
G |-----------|
D |-----------|
A |-----------|
C#|-0~--------|

Lyrics:

Lying all alone, wishing you would call.
Writing all my thoughts has broken all my bones.
You gave it all up, you threw it all away.
There's nothing I can do.

What do I think of dying?
You know it's even worse than what's in my head.
You don't believe me when I tell you,
I don't want to be a fraud and pretend that everything's fine.
I won't be here when you get home.
I'm not gonna sit here and die.

I'll follow through again this time.
I'll swallow swords, spit out my pride.
I'll be just fine.

You read me like a book.
You know I'm running out of legs to stand on.
I won't believe you when you tell me.
These old habits die so hard.
There's no intervention in sight.
There's no point in calling you.
I'm just gonna stand here and fight.

I'll follow through again this time.
I'll swallow swords, spit out my pride.
I'll be just fine, fine.
You fill my head with endless lies.
You're killing me, I'm killing time.
I'll be just fine.

So, maybe one day the pain will go away,
And I will see your face,
I won't even care.
Changing all the locks 'cause I can't change you.

+++++++++++++++++++++++++++++++++
| RaiLeff                       |
| Underground__Dora@Hotmail.Com |
+++++++++++++++++++++++++++++++++

ĂŽnscrie-te la newsletter


Join the ranks ! LIKE us on Facebook