Worlds Apart Tab - Silverstein




Forgot to add this is intro only i cant change it now
e---------------------------------------------|
B--------------------------------------4------|
G--9--7-------9--7-------6----------6-----5~--|
D--------7~---------7~------6--4~-------------|
A---------------------------------------------|
D---------------------------------------------|

e--------------------------------------------------------------------|
B--------------------------------------------------------------------|
G--9--7-------9--7-------6-------------------------------------------|
D--------7~---------7~------6--4~--4-4-4-4--4-4444-4-4-4-4--4-4444---|
A----------------------------------4-4-4-4--4-4444-4-4-4-4--4-4444---|
D----------------------------------4-4-4-4--4-4444-4-4-4-4--4-4444---|

ĂŽnscrie-te la newsletter


Join the ranks ! LIKE us on Facebook