Your Sword Versus My Dagger (ver3) Tab - Silverstein




Silverstein  : Your Sword VS. My Dagger

Drop D


I've gotten really lazy about tabbing lately but i've been meaning to update this
for a while so i finally got around to it. I've changed the whole song and its
alot better so please rate/comment. 
                                                     
Gt.1    Intro  (x2)
E|---------------------------------|-----------------------|
B|---------------------------------|-----------------------|
G|---------------------------------|-33333333333-----------|
D|---------2-3-2-----------2-3-2---|-33333333333-333332222-|
A|-0h3h5/7---------0h3h5/7-------3-|-11111111111-333332222-|
D|---------------------------------|-------------333332222-|
                   


Gt.2      Intro 
E|------------------------------------------------------------------------------------|
B|------------------------------------------------------------------------------------|
G|-------------------------------------------------------------------10-10-10/-12--9--|
D|---------2-3-2-----------2-3-2-------------2-3-5----------0-7-5-----x--x--x---x--x--|
A|-0h3h5/7---------0h3h5/7-------3---0h3h5/7--------0h3h5/7------7----8--8-8/-10--7--|
D|------------------------------------------------------------------------------------|

    Verse                         
      Gt.1             2x      1st      2nd 
E|----------------------------|---------|---------|
B|----------------------------|---------|---------|
G|---------333----------------|55555555-|---------|
D|-000-----333---------3333333|55555555-|22222222-|
A|-000-----111---------3333333|33333333-|22222222-|
D|-000-----------------3333333|---------|22222222-|

Gt. 2                    1st time           2nd time
E|---------------------|-----------------|---------------------|
B|---------------------|-----------------|---------------------|
G|---------333---------|-10-9-5---10-9-5-|-10-9-5---10-9-9-----|
D|-000-----333---------|-x--x-x---x--x-x-|-x--x-x---x--x-x-----|
A|-000-----111---------|-8--7-3---8--7-3-|-8--7-3---8--7-7-----|
D|-000-----------------|-----------------|---------------------|

Gt.1  PreChorus                                  2x
E|----------------------------------------------------|
B|----------------------------------------------------|
G|-3333333355555555-----------------------------------|
D|-3333333355555555--------2---3-2---------2---3-2----|
A|-1111111133333333--0h3h5---------3-0h3h5---------3--|
D|----------------------------------------------------|
                                  

Gt.2  PreChorus                                   2x
E|------------------------------------------------------------------------|
B|------------------------------------------------------------------------|
G|-10101010101010101212121212121212---------------------------------------|
D|-x-x-x-x-x-x-x-x-x-x-x-x-x-x-x-x-----------2-3-2-------------0-7-5------|
A|-8-8-8-8-8-8-8-8-1010101010101010--0h3h5/7-------3---0h3h5/7-------7----|
D|------------------------------------------------------------------------|
                                 

Gt. 1     Chorus                  
E|------------------|-------------------------------|
B|------------------|-------------------------------|
G|-3333333355555555-|----------------33333335555555-|
D|-3333333355555555-|-00000003333333-33333333333333-|
A|-1111111133333333-|-00000003333333-11111113333333-|
D|------------------|-00000003333333----------------|


Gt.2  Chorus                                  
E|------------------------------------------------------------------------|
B|------------------------------------------------------------------------|
G|-10101010101010101212121212121212--10---9----5~--10---9----9~-----------|
D|-x-x-x-x-x-x-x-x-x-x-x-x-x-x-x-x----x---x----x----x---x----x~-----------|
A|-8-8-8-8-8-8-8-8-1010101010101010---8---7----3~---8---7----7~-----------|
D|------------------------------------------------------------------------|
                                                       
Verse  

Prechorus

Chorus

Both guitars end with an open D power chord


interlude   gt 1 comes in after gt 2

both guitars                       
E|----|-------------------------|
B|----|-------------------------|
G|----|-------------------------|
D|-12/|0000-00-0----0000-00-0-0-|
A|-12/|0000-00-0----0000-00-0-0-|
D|-12/|0000-00-0----0000-00-0-0-|
Pm     .... .. .    .... .. . .


Bridge 

 Gt. 1                                                  (4x)
E|-----------|------------------------------------------------------------|
B|-----------|------------------------------------------------------------|
G|-5555-7777-|-----------------------------------33333333-----------------|
D|-5555-7777-|-0000000000-00000000000-3333333333-33333333-3333333-2222222-|
A|-3333-5555-|-0000000000-00000000000-3333333333-11111111-3333333-2222222-|
D|-----------|-0000000000-00000000000-3333333333----------3333333-2222222-|

Gt. 2    x4            Figure out the strumming, i'm too lazy to write it out
E|-------------------|-----------------------------------------------|
B|-------------------|-----------------------------------------------|
G|-10101010-12121212-|--7----9-5----7--9--10-12--14----12---12-14-12-|
D|-x-x-x-x--x-x-x-x--|--x----x-x----x--x--x--x---x-----x----x--x--x--|
A|-8-8-8-8--10101010-|--5----7-3----5--7--8--10--12----10---10-12-10-|
D|-------------------|-----------------------------------------------|



Chorus

Outro both guitars
E|---------------------|
B|---------------------|
G|---------------------|
D|----------2---3-2---0--|
A|--0h3h5/7---------3-0--|
D|--------------------0--|
p.m.     




Song order should go

Intro
Verse
Prechorus
Chorus
Verse
Prechorus
Chorus
Interlude
Bridge
Chorus
Outro



Please rate                                

ĂŽnscrie-te la newsletter


Join the ranks ! LIKE us on Facebook