Your Sword Versus My Dagger Bass Tab - Silverstein




00:00
|-----------------------------------------------|
|-----------------------------------------------|
|-----------------333333333---------------------|
|0-00-0-0-00-0-------------333333-222222--------|    X2

00:17
|----------------------------------------------|
|----------------------------------------------|
|------3333----------------5555555555----------|
|0000-------3333333333-------------------------|    X2

00:33
|----------------------------------------------------------|
|----------------------------------------------------------|
|3333333333-5555555555---------3~--5~----------------------|
|-------------------------------0-00-0-----------0-00-0----|

00:45
|-----------------------------------------------------------------------------|
|-----------------------------------------------------------------------------|
|3333333333-5555555555----------------------------------3333333333-5555555555-|
|---------------------------------0000000000-3333333333-----------------------|

00:57
|----------------------------------------------|
|----------------------------------------------|
|------3333----------------5555555555----------|
|0000-------3333333333-------------------------|

01:12
|--------------------------------------------------------|
|--------------------------------------------------------|
|3333333333-5555555555---------3~--5~--------------------|
|-------------------------------0-00-0------------0-00-0-|

01:24
|-----------------------------------------------------------------------------|
|-----------------------------------------------------------------------------|
|3333333333-5555555555----------------------------------3333333333-5555555555-|
|---------------------------------0000000000-3333333333-----------------------|

01:55
|-------------------|
|-------------------|
|333333-555555
|-------------------

01:57
|---------------------------------------------------------------------|
|---------------------------------------------------------------------|
|---------------------------------------3333333333333-----------------|
|000000000000-3333333333333----------------------5~--3~---------------|    X3

02:31
|--------------------------------------------------------|
|--------------------------------------------------------|
|3333333333-5555555555---------3~--5~--------------------|
|-------------------------------0-00-0------------0-00-0-|

02:43
|-----------------------------------------------------------------------------|
|-----------------------------------------------------------------------------|
|3333333333-5555555555----------------------------------3333333333-5555555555-|
|---------------------------------0000000000-3333333333-----------------------|

end with
|
|
|
|0-000

ĂŽnscrie-te la newsletter


Join the ranks ! LIKE us on Facebook