18 And Life Bass Tab - Skid Row




BASS TAB
ARTIST:SKID ROW
TITLE:18 AND LIFE
TABBED BY:"THE WARLORD"~ADROCK17@EMAIL.COM

TUNING:STANDARD
intro:
D:---------------------27-9------11/------------------------+
A:-4----4h6p4----2h4------------11------4-4---2-4-6-2--0-2-4--+

verse:
A:--4---4h6p4---2-4-6-4----------------4--+
E:-----------------------0-2-4-5--7--4---+

pre-chorus:(numbers in brackets are played really choppy)
A:------------------------------------------------------------4--+
E:--(5-5-5-5-5-5)-5-4-(2-2-2-2-2-2)-24-(4-4-4-4-4-4)-5--7--4---+

chorus:
A:--4--2-0--0----2----4--+
E:-----------0--0----4---+

bridge:(at 2:18)
G:--------------------------4---4---4-------------+
D:---------------------------6-6-6-6-6--6-4-------+
A:--4-x-x--4-x-x--4-x-x--4h7---------------7-6-4--+

bridge II:(accidents will happen...)
A:--5-5--5-5--5-5-5-5----------------------------------------------+
E:---------------------2--2-2-2--2-2-2--0--0-0-0---0-0-2-2-2--2-2-2+

structure:
intro
verse x 2
pre
chorus x 4
verse x 2
pre
chorus x 4
bridge I
bridge II
guitar solo (same as chorus)
chorus till end

ĂŽnscrie-te la newsletter


Join the ranks ! LIKE us on Facebook