18 And Life Solo Tab - Skid Row






this is the solo for the best song ever made.
this is probably the only correct one there is tabbed.
enjoy

e------------------------------------9------------------------|
B-------------------------------------9h12p9--12b-12br-9------|
G-8h9---8h9----8h9-11~--8h9p8--8h9----------------------9-----|
D----11~----11~--------------9~---11~-------------------------|
A-------------------------------------------------------------|
E-------------------------------------------------------------|


e---------------------------------------------9---------------|
B---------------------------------9h10-12p10-9--12p10p9-------|
G-11b-14-11br-89-8~--8-9'--8-9-11----------------------------|
D-----------------9~------------------------------------------|
A-------------------------------------------------------------|
E-------------------------------------------------------------|


e---------------------------------------19p17p16h17p16--------|
B---------------------9h12-14---16b--19-----------------------|
G-11-9p8h9p8~-----9h11----------------------------------------|
D-------------9h11--------------------------------------------|
A-------------------------------------------------------------|


e---16---------------------19b~-------------------------------|
B-19--19p17p16--17p16-----------------------------------------|
G-------------18-----18p16------------------------------------|
D-------------------------------------------------------------|
A-------------------------------------------------------------|
E-------------------------------------------------------------|


/joel






Like us on Facebook