In A Darkened Room Intro Tab - Skid Row




Song: In A Darkened Room
Band: Skid Row


Here's the intro solo.. I tabbed this with a guitar tuned down 
half a step, so move everything down one fret (except for the 
last open note of course) if yours is in standard tuning.



|------11-11---------------11-11b-11-11-------------|
|--11b-------r11-13~~--11b--------------11b-11-9~~--|
|---------------------------------------------------|
|---------------------------------------------------|
|---------------------------------------------------|
|---------------------------------------------------|

|------11-11b--------------------------------|
|--11b----11b----r11p9-11~~---11br-9---------|
|------------------------------------8h10~~--|
|--------------------------------------------|
|--------------------------------------------|
|--------------------------------------------|

|------------------------|
|--9h11------------------|
|-------8h10-------------|
|------------8h10-6h8----|
|------------------------|
|---------------------0--|


tabbed by Ahsan Rabbani
Any questions, comments, etc:  ahsan.rabbani@utoronto.ca

ĂŽnscrie-te la newsletter


Join the ranks ! LIKE us on Facebook